Song name
# A B C D E F G H I J K L M N O P Q R S T U V W X Y Z

Misc Unsigned Bands - Everyday Shooter - Main Menu tab

Help us improve GuitareTab! Take a short survey!
-------------------------------------------------------------------------------
			     Menu Music - Everyday Shooter by Jonathan Mak
-------------------------------------------------------------------------------
Tabbed by: Jeff Maginniss
Email: peridot203@gmail.com

Tuning: Standard E-A-D-G-B-e

Tempo: quick paced

Performance note: Pick with fingers and thumb only, do not use a pick.

-Use bright clean guitar with mellow mids and lows
-Also can use nylon accoustic guitar or heavy weight nickle wound strings

Misc: This is a very simple rolling loop that (mainly) consists of 4 chords
in 2 measures played over and over, with a stutter step in the intro on the
4th repeat.  This can be looped indefinately.  Great for filler when not
playing a song, or talking to the audience as an ambiant loop.

===========

     F#9           Emaj            AM7
         ^         ^       *       ^               
e||--------------|-------------0-------------------|
B||--------------|---------------------------------|
G||*-----1-------|---------1---------------1-------|
D||--2-----------|-------------------------2-------|
A||*-------------|-----------------0---------------|
E||--------------|-0-------------0-----------------|
     |-Let Ring--|                         |-Ring--|

   B6sus4          F#9               Emaj            AM7
   ^       *       ^                 ^       *       ^
e|-------------0-------------------|-------------0-------------------|
B|---------------------------------|---------------------------------|
G|---------1---------------1-------|---------1---------------1-------|
D|---------2---------------2-------|---------2---------------2-------|
A|-2-------------0-----------------|-----------------0---------------|
E|-----------------2---------------|-0-------------0-----------------|
                           |-Ring--|                         |-Ring--|

   B6              F#9               Emaj            AM7
   ^       *       ^                 ^       *       ^
e|-------------0-------------------|-------------0-------------------|
B|---------------------------------|---------------------------------|
G|---------1---------------1-------|---------1---------------1-------|
D|---------2---------------2-------|---------2---------------2-------|
A|-2-------------0-----------------|-----------------0---------------|
E|-----------------2---------------|-0-------------0-----------------|
                           |-Ring--|                         |-Ring--|

   B6sus4          F#9               Emaj            AM7
   ^       *       ^                 ^       *       ^
e|-------------0-------------------|-------------0-------------------|
B|---------------------------------|---------------------------------|
G|---------1---------------1-------|---------1---------------1-------|
D|---------2---------------2-------|---------2---------------2-------|
A|-2-------------0-----------------|-----------------0---------------|
E|-----------------2---------------|-0-------------0-----------------|
                           |-Ring--|                         |-Ring--|

   B6            F#9               
   ^       *     *                 
e|-------------0-------------------|| 
B|---------------------------------||
G|---------1---------------(1)----*||
D|---------2-----------(2)---------||
A|-2-------------2----------------*||
E|----------------(2)--------------||
                        |-Let Ring-|                         

                 |-Song track loops here to beginning intro
                 |-Looping notes shown with ( )'s

| *  staccato
| ^  accent note
| h  hammer-on
| p  pull-off
| ~  vibrato
| +  harmonic
| x  Mute note
===============================================================================
Related for Everyday Shooter - Main Menu tab