Song name
# A B C D E F G H I J K L M N O P Q R S T U V W X Y Z

Misc Unsigned Bands - Beeyah - Legacy tab

This is my first tab, and it is song i wrote for my band. We are an up comming rock band
the Seattle Washington area and we hope you like it.

*please note this is not the complete song
*it is ment to be played fast with heavy distortion

Song strarts very slowly with a clean setting
---------------------------------|
---------------------------------|
---------------------------------|
---------------------------------|
---3------3----4----3-----2------|
-1-----1-----1----1----1----1/4--|

Song speeds up and distortion is turned high
Repeat this three times:
-------------------------------------------------------------------------|
-------------------------------------------------------------------------|
-------------------------------------------------------------------------|
-------------------------------------------------------------------------|
-5-5-5----------5-5-5-------------3---5-5-5------------------------------|
-3-3-3-3pm-3pm--3-3-3-3pm-3pm-3-5---5-3-3-3-3pm-3pm--3pm-3pm--3pm-3pm----|

-------------------------------------------------------------------------|
-------------------------------------------------------------------------|
-------------------------------------------------------------------------|
---------------------------------------9---9------10---11---11---11--11--|
-----1pm-----1pm---------1pm---------7---7---10pm-10----9----9----9---9--|
-1pm-1pm-1pm-1pm-1pm-1pm-1pm-1pm-1/5-------------------------------------|

Repeat this twice:
-------------------------------------------------------------------------|
-------------------------------------------------------------------------|
-------------------------------------------------------------------------|
-------------------------------------------------------------------------|
-----3-3-3-3pm-3pm-3pm-5-5-5-5pm-5pm-5pm--9-9-9-9pm-9pm-9pm---9---9---9--|
-0pm-1-1-1-1pm-1pm-1pm-3-3-3-3pm-3pm-3pm--7-7-7-7pm-7pm-7pm-7---7---7----|

Repeat this Twice:
-------------------------------------------------------------------------|
-------------------------------------------------------------------------|
-------------------------------------------------------------------------|
--------12/17------------------------------------------------------------|
---8------------------------------------5pm-5pm-5pm--7pm--3pm-----3------|
-7---10--------0--0--0pm--0--0--0--0pm--3pm-3pm-3pm--5pm--3pm--1--1--5-5-|

Repeat this twice quickly and then repeat once slowly:
-------------------------------------------------------------------------|
-----------------------16------------------------------------------------|
-----------------15-------16---------------------------------------------|
--------12/17-17----16-----------16--------------------------------------|
---8-------------------------16---------0------2pm-------5-5-5-5pm-5pm---|
-7---10-----------------------------16-----0-2-0pm-1-1-3-3-3-3-3pm-3pm---|

Play slowly:
-------------------------------------------------|
-------------------------------------------------|
-------------------------------------------------|
------------8------------------------------------|
---5------6----------1/10--------1/10----------3-|
-3---4-4-------10/1--------10/1--------10/1--1---|

Thank you for looking at our tab. We will update later this month and we will expand the
so it will be complete and we might include vocals and bass. Also we wanted you to
that both guitars play this at the same time as we do not have an official rythm guitar, 
both guitars usually play the same thing, although we will update it in the future so
one of the guitars plays something else different.
Tap to rate this tab
# A B C D E F G H I J K L M N O P Q R S T U V W X Y Z