Song name
# A B C D E F G H I J K L M N O P Q R S T U V W X Y Z

Misc Unsigned Bands - Razors Edge - Broken tab

Chorus going into bridge- rhythm


E:-------------------------------------------------------------------------|
B:5-5-5-5xx5-5-5-5x0-0--------2xx2-2x2-2-2---------------------------------|
G:6-6-6-6xx6-6-6-6x6-6--------2xx2-2x2-4-2---------------------------------|
D:7-7-7-7xx7-7-7-7x7-7--------2xx2-2x2-2-2xx4-4-4--------------------------|
A:5-5-5-5xx5-5-5-5x5-5----0-0-------------xx4-4-4--------------------------|
E:----------------------------------------xx2-2-2--------------------------|


Chorus going into bridge- lead


E:--------7-----5-----4----------------------------------------------------|
B:--5-------5-----5-----5-7-5---5------------------------------------------|
G:----6-------6-----6---------6---2xx4x4-4x4-4-4-4-------------------------|
D:0-----0-------------------------2xx2x2-2x6-6-6-6-------------------------|
A:--------------------------------0xx0x2-2x4-4-4-4-------------------------|
E:-------------------------------------------------------------------------|



Bridge- rhythm


E:-------------------------------------------------------------------------|
B:-------------------------------------------------------------------------|
G:xx1s2-2s4-4s6-4s2-2s1----------------------------------------------------|
D:xx0-0-0-0-0-0-0-0-0-0-xx6s7-7s9-7s6-4s6-9s6------------------------------|
A:----------------------xx0-0-0-0-0-0-0-0-0-0------------------------------|
E:-------------------------------------------------------------------------|


Bridge- lead


E:------------------------------------------------------------------------|
B:------------------------------------------------------------------------|
G:xx1s2-2s4-4s6-6s7-7s9---------------------------------------------------|
D:xx0-0-0-0-0-0-0-0-0-0-xx6s7-7s9-9s11s9-6-6s7s4--------------------------|
A:----------------------xx0-0-0-0-0-0--0-0-0-0-0--------------------------|
E:------------------------------------------------------------------------|



Main riff for the solo- rhythm


E:-------------------------------------------------------------------------|
B:-------------------------------------------------------------------------|
G:-xx4s6-6-4s6-6-4s6-6----------------4-4----------------------------------|
D:-xx0-0-0-0-0-0-0-0-0-xx4s6-6-4s6-6--4-4--4-4-----------------------------|
A:---------------------xx0-0-0-0-0-0--2-2--4-4-----------------------------|
E:-----------------------------------------2-2-----------------------------|


Main Riff for the solo- lead


E:-------------------------------------------------------------------------|
B:-------------------------------------------------------------------------|
G:---4-6---4-6---4-6---4-6-7-6h7p6p4h6------------------------4-4----------|
D:-0-----0-----0-----0-------------------4-6----4-6---7---6---4-4--4-4-----|
A:-------------------------------------0------0-----0---0-----2-2--4-4-----|
E:-----------------------------------------------------------------2-2-----|
Tap to rate this tab
 
# A B C D E F G H I J K L M N O P Q R S T U V W X Y Z