Song name
# A B C D E F G H I J K L M N O P Q R S T U V W X Y Z

Misc Unsigned Bands - Flamin Riot - Moneys The Life tab

This is my bands song. This is...Flamin' Riot with Moneys The Life!!
Intro

A---------------------------------------|
B---0-2--0-2--0-2--0-232----------------|
G---------------------------------------|               X2
D---------------------------------------|
A---------------------------------------|
E---------------------------------------|

Then you switch to a double for the end of the intro and verse.

A---0-2--0-2--0-2--0-232-|
B---0-2--0-2--0-2--0-232-|
G------------------------|
D------------------------|
A------------------------|
E------------------------|
Bridge

E---5-----0-3-0----0003-0--------|
B----------------------2---------|
G--------------------------------|       X2
D--------------------------------|
A--------------------------------|
E--------------------------------|

Since I'm bass guitarist I'm not sure what our lead guitarist does for the chorus so 
a rough guess.

Chorus

E------12-12--9---10-10--7--77776999121212-|
B------------------------------------------|
G------------------------------------------|
D------------------------------------------|
A------------------------------------------|
E------------------------------------------|
X3 but on third one you only play up to the 1st 7 as there is a drum bang lol.

Thts it really in an order but cba doin tht lol Bye.
Tap to rate this tab
 
# A B C D E F G H I J K L M N O P Q R S T U V W X Y Z