Song name
# A B C D E F G H I J K L M N O P Q R S T U V W X Y Z

Misc Unsigned Bands - Pitbull Daycare - You Make Me Feel So Dead tab

----------------------------------------------------------------------------
	         You Make Me Feel So Dead - Pitbull Daycare
----------------------------------------------------------------------------
Tabbed by: ryantherocker
Email: canonrockryan@aim.com      Please rate this well! It's my first tab

Tuning: Drop D

e|-----------------------[INTRO]-------------------------------------------|
B|-------------------------------------------------------------------------|
G|-------------------------------------------------------------------------|
D|-0-0--0-3--0-0--0-3-1-0----0-0--0-3--0-0--0-3-1~-------------------------|
A|-0-0--0-3--0-0--0-3-1-0----0-0--0-3--0-0--0-3-1~---------x4--------------|
D|-0-0--0-3--0-0--0-3-1-0----0-0--0-3--0-0--0-3-1~-------------------------|

e|-------------------[VERSE-1]---------------------------------------------|
B|-------------------------------------------------------------------------|
G|-7----8--7----5--8--5-7/5\7----8--7----5--8------------------------------|
D|-x----x--x----x--x--x-x/x\x----x--x----x--x------------------------------|
A|-5----6--5----3--6--3-5/3\5----6--5----3--6--------------x1--------------|
D|-------------------------------------------------------------------------|

e|--10-10-10-10-10-10-11-10-11-10-10-10-10-10-10---------------------------|
B|-8--8--8--8--8--8--8--------8--8--8--8--8--8-----------------------------|
G|-------------------------------------------------------------------------|
D|----------------------------------------------------------x1-------------|
A|--------[PRE-CHORUS-1]---------------------------------------------------|
D|-------------------------------------------------------------------------|

e|-----------------------[CHORUS-1]----------------------------------------|
B|-------------------------------------------------------------------------|
G|-------------------------------------------------------------------------|
D|-0-0--0-3--0-0--0-3-1-0----0-0--0-3--0-0--0-3-1~---1-1--1-1--1-1---------|
A|-0-0--0-3--0-0--0-3-1-0----0-0--0-3--0-0--0-3-1~---1-1--1-1--1-1---------|
D|-0-0--0-3--0-0--0-3-1-0----0-0--0-3--0-0--0-3-1~---1-1--1-1--1-1---------|

e|--------------------------------[CHORUS-1](continued)--------------------|
B|-------------------------------------------------------------------------|
G|-------------------------------------------------------------------------|
D|-0-0--0-3--0-0--0-3-1-0--------------------------------------------------|
A|-0-0--0-3--0-0--0-3-1-0-------------------------------------x2-----------|
D|-0-0--0-3--0-0--0-3-1-0--------------------------------------------------|

e|-------------------[VERSE-2]---------------------------------------------|
B|-------------------------------------------------------------------------|
G|-7----8--7----5--8--5-7/5\7----8--7----5--8------------------------------|
D|-x----x--x----x--x--x-x/x\x----x--x----x--x------------------------------|
A|-5----6--5----3--6--3-5/3\5----6--5----3--6--------------x1--------------|
D|-------------------------------------------------------------------------|

e|--10-10-10-10-10-10-11-10-11-10-10-10-10-10-10---------------------------|
B|-8--8--8--8--8--8--8--------8--8--8--8--8--8-----------------------------|
G|-------------------------------------------------------------------------|
D|----------------------------------------------------------x1-------------|
A|--------[PRE-CHORUS-2]---------------------------------------------------|
D|-------------------------------------------------------------------------|

e|-----------------------[CHORUS-2]----------------------------------------|
B|-------------------------------------------------------------------------|
G|-------------------------------------------------------------------------|
D|-0-0--0-3--0-0--0-3-1-0----0-0--0-3--0-0--0-3-1~---1-1--1-1--1-1---------|
A|-0-0--0-3--0-0--0-3-1-0----0-0--0-3--0-0--0-3-1~---1-1--1-1--1-1---------|
D|-0-0--0-3--0-0--0-3-1-0----0-0--0-3--0-0--0-3-1~---1-1--1-1--1-1---------|

e|--------------------------------[CHORUS-2](continued)--------------------|
B|-------------------------------------------------------------------------|
G|-------------------------------------------------------------------------|
D|-0-0--0-3--0-0--0-3-1-0--------------------------------------------------|
A|-0-0--0-3--0-0--0-3-1-0-------------------------------------x2-----------|
D|-0-0--0-3--0-0--0-3-1-0--------------------------------------------------|

e|----------------------[BRIDGE]-------------------------------------------|
B|-------------------------------------------------------------------------|
G|-------------------------------------------------------------------------|
D|-0-0--1-0----------------------------------------------------------------|
A|-0-0--1-0----------x8----------------------------------------------------|
D|-0-0--1-0----------------------------------------------------------------|

e|-----------------------------------[SOLO]--------------------------------|
B|-------------------------------------------------------------------------|
G|-------------------------------------------------------------------------|
D|-----I-do-not-know-the-solo-but-the-backing-to-the-solo-is-the-chorus----|
A|-------------------------------------------------------------------------|
D|-------------------------------------------------------------------------|

e|--10-10-10-10-10-10-11-10-11-10-10-10-10-10-10---------------------------|
B|-8--8--8--8--8--8--8--------8--8--8--8--8--8-----------------------------|
G|-------------------------------------------------------------------------|
D|----------------------------------------------------------x1-------------|
A|--------[PRE-CHORUS-3]---------------------------------------------------|
D|-------------------------------------------------------------------------|

e|-----------------------[CHORUS-3]----------------------------------------|
B|-------------------------------------------------------------------------|
G|-------------------------------------------------------------------------|
D|-0-0--0-3--0-0--0-3-1-0----0-0--0-3--0-0--0-3-1~---1-1--1-1--1-1---------|
A|-0-0--0-3--0-0--0-3-1-0----0-0--0-3--0-0--0-3-1~---1-1--1-1--1-1---------|
D|-0-0--0-3--0-0--0-3-1-0----0-0--0-3--0-0--0-3-1~---1-1--1-1--1-1---------|

e|--------------------------------[CHORUS-3](continued)--------------------|
B|-------------------------------------------------------------------------|
G|-------------------------------------------------------------------------|
D|-0-0--0-3--0-0--0-3-1-0--------------------------------------------------|
A|-0-0--0-3--0-0--0-3-1-0-------------------------------------x4-----------|
D|-0-0--0-3--0-0--0-3-1-0--------------------------------------------------|

e|----------------------[OUTRO]--------------------------------------------|
B|-------------------------------------------------------------------------|
G|-------------------------------------------------------------------------|
D|-0-0--1-0-------0-0--0-0-------------------------------------------------|
A|-0-0--1-0---x3--0-0--0-0-------------------------------------------------|
D|-0-0--1-0-------0-0--0-0-------------------------------------------------|

| /  slide up
| \  slide down
| h  hammer-on
| p  pull-off
| ~  vibrato
| +  harmonic
| x  Mute note
============================================================================
                      www.ultimate-guitar.com
                      http://www.pitbulldaycare.com/ - band website
Tap to rate this tab
# A B C D E F G H I J K L M N O P Q R S T U V W X Y Z