Song name
# A B C D E F G H I J K L M N O P Q R S T U V W X Y Z

Misc Unsigned Bands - Adventure Plus - Leave It To The City tab

Adventure Plus tabs
by Tom McTiernan
(Guitar and back-up vocals)

All Adventure Plus songs are written in Standard (E) Tuning
Most parts are written so that the pick hand can strum even stokes on-beat.
/ = Slide Up
\ = Slide Down
() = Slide is one beat
m = Mute
x = Fret-hand Mute
d = Downstroke
u = Upstroke


VERSE 1

- Sam's Part

  d    u d    u d    u d  d  d    u d    u d    u d  d
--------------------------------------------------------|
--------------------------------------------------------|
--------------------------------------------------------|
---------6-----------6--------------6-----------6-------|
-------7------7-9------9--7-------7------7-9------9--7--|
--0--------------------------0--------------------------|

  d    u d    u d    u d  d  d    u d    u d     u d u d  d
-----------------------------------------------------------------|
-----------------------------------------------------------------|
-----------------------------------------------------------------|
---------6-----------6--------------6----------------6-7---------|end
-------7------7-9------9--7-------7------7-(7/9)-9-9------6--7---|
--5--------------------------5-----------------------------------|


- Tom's Part

all downstrokes
------------7--------------------------7---------------------|
-------9--------------------------9--------------------------|
--9--------------------------9-------------------------------|
-------------------------------------------------------------|
-------------------------------------------------------------|
-------------------------------------------------------------|

------------5--------------------------5--------------7----------|
-------5--------------------------5--------------7---------------|end
--6--------------------------6-------------(6/8)----------8--9---|
-----------------------------------------------------------------|
-----------------------------------------------------------------|
-----------------------------------------------------------------|
Tap to rate this tab
# A B C D E F G H I J K L M N O P Q R S T U V W X Y Z