Song name
# A B C D E F G H I J K L M N O P Q R S T U V W X Y Z

Misc Unsigned Bands - Graveyard Shift - Intro tab

-------------------------------------------------------------------------------
Intro - Graveyard Shift
Rest Without Peace
-------------------------------------------------------------------------------
Tabbed by: axeslash
Email: holmzito@yahoo.com

Tuning: Standard


e|------------------------------------------------------|
B|------------------------------------------------------|
G|-9--9-9-9--9-9-4--4-4-4--4-4-5--5-5-5--5-5-------5-5--|
D|-7--7-7-7--7-7-2--2-2-2--2-2-3--3-3-3--3-3-5-5-5-3-3--|
A|-------------------------------------------3-3-3------|
E|------------------------------------------------------|
Riff Continued
e|--------------------------------------| Play this riff
B|--------------------------------------| 5 times.
G|-4--4-4-4-4-4-4-2--2-2-2--2-2-2--2--2-|
D|-2--2-2-2-2-2-2-0--0-0-0--0-0-0--0--0-|
A|--------------------------------------|
E|--------------------------------------|

e|------------------------------------------------------|
B|------------------------------------------------------|
G|------------------------------------------------------|
D|-7~~~~2~~~~3~~~~---3--2~~~~-----2--2-2-2--2-2-2--2--2-|
A|----------------3----------2~~~~0--0-0-0--0-0-0--0--0-|
E|------------------------------------------------------| x2

e|-------------------------------------------------------------|
B|-------------------------------------------------------------|
G|-------------------------------------------------------------|
D|-2--2-2-5--5--5-5-7--7-7-8--9--2--2-2-5--5--5-5-7--7-7-9--8--|
A|-0--0-0-3--3--3-3-5--5-5-6--7--0--0-0-3--3--3-3-5--5-5-7--6--|
E|-------------------------------------------------------------|

e|-----------------------------------------------|
B|-----------------------------------------------|
G|--------------------------------------------2--|
D|-2--2-2-5--5--5-5-7--7-7-8--9-8-9-8-9-8--5--2--|
A|-0--0-0-3--3--3-3-5--5-5-6--7-6-7-6-7-6--3--0--|
E|-----------------------------------------------|


| /  slide up
| \  slide down
| h  hammer-on
| p  pull-off
| ~  vibrato
| +  harmonic
| x  Mute note
===============================================================================
Tap to rate this tab
 
# A B C D E F G H I J K L M N O P Q R S T U V W X Y Z