Song name
# A B C D E F G H I J K L M N O P Q R S T U V W X Y Z

Misc Unsigned Bands - Corrosion - Its True tab

this is a song that i just made up while i was sitting on my couch
it is a slow song i think it sounds nice you could play it any way 
you want i used my thumb to play it and it gave it a nice sound



-----------0--0-0-0-0-----------0--0-0-0-0--/
-----------0--0-0-0-0-----------0--0-0-0-0--/
-----------0--0-0-0-0-----------0--0-0-0-0--/
-----------0--0-0-0-0-----------0--0-0-0-0--/
-2h333p2-2-2--2-2-2-2-2h3-3-----3--3-3-3-3--/
-----------0--0-0-0-0-------0-0-0--0-0-0-0--/


-----------0--0-0-0-0-----------0--0-0-0-0--/
-----------0--0-0-0-0-----------0--0-0-0-0--/
-----------0--0-0-0-0-----------0--0-0-0-0--/
-----------0--0-0-0-0-----------0--0-0-0-0--/
-2h333p2-2-2--2-2-2-2-2h3-3-----3--3-3-3-3--/
-----------0--0-0-0-0-------0-0-0--0-0-0-0--/


-0-2-3-2h3-2-0-/
---------------/
---------------/
---------------/
---------------/
---------------/
Tap to rate this tab
# A B C D E F G H I J K L M N O P Q R S T U V W X Y Z