Song name
# A B C D E F G H I J K L M N O P Q R S T U V W X Y Z

Misc Unsigned Bands - Lucas Abbott - Best In Me tab

One song that I wrote on June 20th. I think it's one of my best yet, I'm proud of it. :)

Intro  play x2

e|-3-3-3-3-3-3-3-3-3-3-3-3-3-3-3-3-2-2-2-2-2-2-2-2-2-2-2-2-2-2-2-2-|
B|-3-3-3-3-3-3-3-3-3-3-3-3-3-3-3-3-3-3-3-3-3-3-3-3-3-3-3-3-3-3-3-3-|
G|-0---------------------------------------------------------------|
D|-----------------------------------------------------------------|
A|-----------------------------------------------------------------|
E|-----------------------------------------------------------------|

e|-0-0-0-0-0-0-0-0-0-0-0-0-0-0-0-0-2-2-2-2-2-2-2-2-2-2-2-2-2-2-2-2-|
B|-3-3-3-3-3-3-3-3-3-3-3-3-3-3-3-3-3-3-3-3-3-3-3-3-3-3-3-3-3-3-3-3-|
G|-----------------------------------------------------------------|
D|-----------------------------------------------------------------|
A|-----------------------------------------------------------------|
E|-----------------------------------------------------------------|


Verse

G Dadd9 Em7 Dadd9                   *Dadd9 with low F#


Chorus

Same as verse


Verse


Bridge

Em7 D,Dadd9 Cadd9 G G/F#

Intro

Intro played through beginning of chorus, then onto normal chorus chords

Chorus again

Intro End on 2 3


============================================================================
Lyrics:
Lyrics in brackets are backing vocals.


All the time you know I sit here waiting for you now
‘Cos I know that you will be here, sometime, somewhere, somehow
You are all I need and I know that I will find you, 

(Ohhhhhhhhhhhhhhhh)                       (best in me)
	You bring out the best in me
				          (Best in you	
I bring out the best in you 
Now)
Sometimes we’re all we need
To let the sun shine through
				     (Only thing)
Sometimes you’re the only thing
		(That I can see)
That I can see
I wanna hold you close
And never have to let go
Now 

I’m just standing here, and picturing me and you
And what we could do
Wish I could show you the way I see
Through my eyes
All I see,

Is you
Is you
Wish I could show you

(Ohhhhhhhhhhhhhhhh)                       (best in me)
	You bring out the best in me
				          (Best in you	
I bring out the best in you 
Now)
Sometimes we’re all we need
To let the sun shine through
				     (Only thing)
Sometimes you’re the only thing
		(That I can see)
That I can see
I wanna hold you close
And never have to let go
Now 

                                    (best in me)
	You bring out the best in me
				          (Best in you	
I bring out the best in you 
Now)
Sometimes we’re all we need
To let the sun shine through
				     (Only thing)
Sometimes you’re the only thing
		(That I can see)
That I can see
I wanna hold you close
And never have to let go
Now 


That's it. The actual song will be faturd on youtube if you would like to hear it.
Tap to rate this tab
 
# A B C D E F G H I J K L M N O P Q R S T U V W X Y Z