Guitaretab - guitar tabs
Song name
# A B C D E F G H I J K L M N O P Q R S T U V W X Y Z

Misc Unsigned Bands - Earth To You - Run And Hide tab

Earth to You
Run and Hide

e---0---------3----2----0----0----0----|
b----0---------3-----3---1-----1-------|
g--------------------------------------|   x2
d------------------0--0----2-----2-----|
a--2---2-----2----------3--------------|
E-0-----0-2h3-3--3---------------------|

e---0---------3----2----0----3p0---|
b----0---------3-----3---1---------|
g----------------------------------|  x1
d------------------0--0----2-------|
a--2---2-----2----------3----------|
E-0-----0-2h3-3--3-----------------|

e---0---------3----2----0----0----0----|
b----0---------3-----3---1-----1-------|
g--------------------------------------|   x1
d------------------0--0----2-----2-----|
a--2---2-----2----------3--------------|
E-0-----0-2h3-3--3---------------------|


Em    G   D   C
Cant get out

Em    G   D   C
lost inside

Em    G   D   C
nowhere to go

Em    G   D   C
Run and hide


donít know how I can leave this place

e-0---------3------------|
b-1---------1------------|
g-0---X10---0----X3------|
d-2---------2------------|
a-3---------3------------|
E-0---------0------------|

with a sad look on your face
 e------0---------5------|
 b------3---------3------|
 g------0---X10---0------|X3
 d------4---------4------|
 a------5---------5------|
 E------0---------0------|

why are we still here
e-0---------3------------|
b-1---------1------------|
g-0---X10---0----X3------|
d-2---------2------------|
a-3---------3------------|
E-0---------0------------|

Run Away
 e------0---------5------|
 b------3---------3------|
 g------0---X10---0------|X3
 d------4---------4------|
 a------5---------5------|
 E------0---------0------|


Em    G   D   C
Cant get out

Em    G   D   C
lost inside

Em    G   D   C
nowhere to go

Em    G   D   C
Run and hide


nothings stopping you now
e-0---------3------------|
b-1---------1------------|
g-0---X10---0----X3------|
d-2---------2------------|
a-3---------3------------|
E-0---------0------------|

where else can you go
 e------0---------5------|
 b------3---------3------|
 g------0---X10---0------|X3
 d------4---------4------|
 a------5---------5------|
 E------0---------0------|

should I follow
e-0---------3------------|
b-1---------1------------|
g-0---X10---0----X3------|
d-2---------2------------|
a-3---------3------------|
E-0---------0------------|
[ Tab from: http://www.guitaretab.com/m/misc-unsigned-bands/110201.html ]
i dont know
 e------0---------5------|
 b------3---------3------|
 g------0---X10---0------|X3
 d------4---------4------|
 a------5---------5------|
 E------0---------0------|


Em G D C X4


look out their comming
e-0---------3------------|
b-1---------1------------|
g-0---X10---0----X3------|
d-2---------2------------|
a-3---------3------------|
E-0---------0------------|

you shouldnt be inside
 e------0---------5------|
 b------3---------3------|
 g------0---X10---0------|X3
 d------4---------4------|
 a------5---------5------|
 E------0---------0------|

run away
e-0---------3------------|
b-1---------1------------|
g-0---X10---0----X3------|
d-2---------2------------|
a-3---------3------------|
E-0---------0------------|

run and hide
 e------0---------5------|
 b------3---------3------|
 g------0---X10---0------|X3
 d------4---------4------|
 a------5---------5------|
 E------0---------0------|


Am C G D
Am C G E
Am C G D

e-----------------------------------------------------------|
b----------------------------------------------5-----5------|
g-------5---5---5------5--5-7-9-7-------5---5-7-7-5-7-7-5---|
d----5h7--7---7-----5h7--7-----------5h7--7---------------7-|
a-5h7------------5h7--------------5h7-----------------------|
E-----------------------------------------------------------|

e----------------------------------------------------------|
b----------------------------------------------------------|
g-------5---5---5------5--5-7-9-7--------5-5-7-9-7-9-10-12-|
d----5h7--7---7-----5h7--7------------5h7-7----------------|
a-5h7------------5h7---------------5h7---------------------|
E----------------------------------------------------------|

Em    G   D   C
Cant get out

Em    G   D   C
lost inside

Em    G   D   C
nowhere to go

Em    G   D   C
Run and hide

e---0---------3----2----0----0----0----|
b----0---------3-----3---1-----1-------|
g--------------------------------------|   x2
d------------------0--0----2-----2-----|
a--2---2-----2----------3--------------|
E-0-----0-2h3-3--3---------------------|

e---0---------3----2----0----3p0---|
b----0---------3-----3---1---------|
g----------------------------------|  x1
d------------------0--0----2-------|
a--2---2-----2----------3----------|
E-0-----0-2h3-3--3-----------------|

e---0---------3----2----0----0----0----|
b----0---------3-----3---1-----1-------|
g--------------------------------------|   x1
d------------------0--0----2-----2-----|
a--2---2-----2----------3--------------|
E-0-----0-2h3-3--3---------------------|
Related for Earth To You - Run And Hide tab