Song name
# A B C D E F G H I J K L M N O P Q R S T U V W X Y Z

Misc Unsigned Bands - Colombian Homegrown - Wake Up tab

-------------------------------------------------------------------------------

			     WAKE UP - Colombian Homegrown

-------------------------------------------------------------------------------

Tabbed by: The Banshee

Email:banshee62@live.com

Tuning: Drop D (DADGBe)

Verse:
e|-------------------------------------------------------------------|
B|-------------------------------------------------------------------|
G|-------------------------------------------------------------------|
D|0-3-4-0-3-4-0-3-4-0-3-4--6666--0-3-4-0-3-4-0-3-4-0-3-4--8866-------|
A|0-3-4-0-3-4-0-3-4-0-3-4--------0-3-4-0-3-4-0-3-4-0-3-4-------------|
D|0-3-4-0-3-4-0-3-4-0-3-4--------0-3-4-0-3-4-0-3-4-0-3-4-------------|

e|------------------------------------------------------------------|
B|------------------------------------------------------------------|
G|------------------------------------------------------------------|
D|0-3-4-0-3-4-0-3-4-0-3-4--6666--------------00---------------------|
A|0-3-4-0-3-4-0-3-4-0-3-4------------------  00---------------------|
D|0-3-4-0-3-4-0-3-4-0-3-4--------0-3-4-0-3-4-00-----0-3p0-4p0---x4--|

Chorus:
e|-------------------------------------------|
B|-------------------------------------------|
G|7-7-777-7-77-7777-5-5-555------------------|
D|7-7-777-7-77-7777-5-5-555--5-555-5-7-------|
A|5-5-555-5-55-5555-3-3-333--5-555-5-7-------|
D|---------------------------5-555-5-7-------| x2


song parts:
verse 1
chorus
verse 2
chorus
verse 3
chorus
solo
chorus

| /  slide up

| \  slide down

| h  hammer-on

| p  pull-off

| ~  vibrato

| +  harmonic

| x  Mute note

===============================================================================
Tap to rate this tab
# A B C D E F G H I J K L M N O P Q R S T U V W X Y Z