Song name
# A B C D E F G H I J K L M N O P Q R S T U V W X Y Z

Misc Unsigned Bands - Monte Negro - Give Me Love tab

I did this by ear so bear with me ...


You could put a little chorus 
to make it sound more like the song

Intro:

|----------------------------------|
|----------------------------------|
|--6---6---6---6-------------------|
|--6---6---6---6---6---6---6---6---|
|--4---4---4---4---6---6---6---6---|
|------------------4---4---4---4---|

|---------------------------------|
|---------------------------------|
|--6---6---6----------------------|
|--6---6---6------6---------------|
|--4---4---4------6---------------|
|-----------------4---------------|


Verse And Chorus:

|----------------------------------|
|----------------------------------|
|--6---6---6---6-------------------|
|--6---6---6---6---6---6---6---6---|
|--4---4---4---4---6---6---6---6---|
|------------------4---4---4---4---|




Solo: 

|--6br---4v---6br---------|
|-------------------4v----|
|-------------------------|
|-------------------------|
|-------------------------|
|-------------------------|

|--6br---4v---------------|
|-------------------------|
|---------------1---------|
|--------------------1----|
|-------------------------|
|-------------------------|

|--6br---4v---6br---------|
|-------------------4v----|
|-------------------------|
|-------------------------|
|-------------------------|
|-------------------------|

|--6br---4v---------------|
|-------------------------|
|---------------1---------|
|--------------------1----|
|-------------------------|
|-------------------------|


|-------------------------|
|-------------------------|
|---1---3---4---6---------|
|-------------------------|
|-------------------------|
|-------------------------|

End

Any comments or suggestions - Munoz228@yahoo.com 

br= Bend And Realease
v= Vibrato

http://www.montenegrorocks.com/

Tap to rate this tab
# A B C D E F G H I J K L M N O P Q R S T U V W X Y Z