Guitaretab - guitar tabs
Song name
# A B C D E F G H I J K L M N O P Q R S T U V W X Y Z

Misc Unsigned Bands - Silverline - All My Life tab

-----------------------------------------------------------------------
	     SONG NAME All my life - Band Name Silverline
-----------------------------------------------------------------------
Tabbed by:Bostonrocks
Email: flyboybdv@hotmail.com

Tuning: Drop D DADGBE
Chorus
E|--------------------------------------------------------------------|
B|--------------------------------------------------------------------|
G|-------------------------------------------------------------5------|
D|-----7-----------0----------- -3--------------0---------------------|
A|-----7-----------0-------------3--------------0--------------3------|
D|-----7-----------0-------------3--------------0---------------------|
     Strum 7x each                             strum 3x  strum 1x
     
verse
E|--------------------------------------------------------------------|
B|--------------------------------------------------------------------|
G|--------------------------------------------------------------------|
D|------777777---9-----0----3---0---3---0----3----0--3----------------|
A|------777777---9-----0----3---0---3---0----3----0--3----------------|
D|------777777---9-----0----3---0---3---0----3----0--3----------------|
[ Tab from: http://www.guitaretab.com/m/misc-unsigned-bands/110233.html ]
Solo  play this 2x                 then play this   play whole thing 2x 
E|--------------------------------------------------------------------|
B|----18--17----------------------------------------------------------|
G|------------17---15---14--------------------------------------------|
D|--------------------------15-----------1514----/-10-~~~~~----------|
A|--------------------------------------------------------------------|
D|--------------------------------------------------------------------|

E|--------------------------------------------------------------------|
B|--------------------------------------------------------------------|
G|---10\-9\-5---------------------------------------------------------|
D|--------------------------------------------------------------------|
A|---8\--7\-3---------------------------------------------------------|
D|--------------------------------------------------------------------|

Breakdown
E|--------------------------------------------------------------------|
B|--------------------------------------------------------------------|
G|--------------------------------------------------------------------|
D|---0--7----0------7------0----7----0-----0----0---0--0---0---0--7---|
A|---0--7----0------7------0----7----0-----0----0---0--0---0---0--7---|
E|---0--7----0------7----- 0----7----0-----0----0---0--0---0---0-7---|



| /  slide up
| \  slide down
| h  hammer-on
| p  pull-off
| ~  vibrato
| +  harmonic
| x  Mute note
Related for Silverline - All My Life tab