Guitaretab - guitar tabs
Song name
# A B C D E F G H I J K L M N O P Q R S T U V W X Y Z

Misc Unsigned Bands - Pyromaniacs - Rampage tab

This is my bands song

Band:Pyromaniacs
Song name:Rampage

Tuning - Standard

Intro/verse
e|-------------------------------------------------------------|
B|---------------3-3-3-----------------------------------------|
G|---------------2-2-2-2-2-------------------------------------|
D|--2--2-2-2-2---0-0-0-2-2-------------------------------------|
A|--2--2-2-2-2---------0-0-------------------------------------|
E|--0--0-0-0-0-------------------------------------------------|

Pre-chorus

e|-3-----3-----3-----3-----3~----------------------------------|
B|-3-----3-----3-----3-----3~----------------------------------|
G|-0-----0-----0-----0-----0~----------------------------------|
D|-0-----0-----0-----0-----0~----------------------------------|
A|-------------------------------------------------------------|
E|-3-----3-----3-----3-----3~----------------------------------|

Chorus(Play along with words,i dont know them all now, im not the singer)

e|------------------------------------------------------------|
B|------------------------------------------------------------|
G|------------------------------------------------------------|
D|-7\5/7-7-5--------------------------------------------------|
A|-5\3/5-5-5--------------------------------------------------|
E|------------------------------------------------------------|

Solo 1

e|------------------------------------------------------------|
B|-------5-5-------5-5-------5-5------------------------------|
G|-7^(9)-----7^(9)-----7^(9)-----7-5---5~-5h6h7---------------|
D|-----------------------------------7------------------------|
A|------------------------------------------------------------|
E|------------------------------------------------------------|

e|------------------------------------------------------------|
B|------------------------------------------------------------|
G|-1/5~-0-1/7~-0-1/9~-11-12-14~-14-12-11-11-15^(17)-----------|
D|------------------------------------------------------------|
A|------------------------------------------------------------|
E|------------------------------------------------------------|

                          hold  bend__________________________
e|------------------------------------------------------------|
B|----------------7~---15^(17)-15^(17)-15^(17)-15^(17)-(17)^15|
G|-11-11h12p11----7~------------------------------------------|
D|-------------12---------------------------------------------|
A|------------------------------------------------------------|
E|------------------------------------------------------------|
[ Tab from: http://www.guitaretab.com/m/misc-unsigned-bands/110265.html ]
e|-12---------------------------------------------------------|
B|----15-12---------------------------------------------------|
G|----------14-12---------------------------------------------|
D|----------------14-12---------------------------------------|
A|----------------------14-12~--------------------------------|
E|------------------------------------------------------------|

e|------------------------------------------------------------|
B|------------------------------------------------------------|
G|------------------------------------------------------------|
D|------------------------------------------------------------|
A|-12-12-12-14-12-12-12-15-12-12-12-14-12-12-12-9~------------|
E|------------------------------------------------------------|

e|-------------------------------------------------------------------------|
B|-------------------------------------------------------------------------|
G|-------------------------------------------------------------------------|
D|-------------------------15-14-12-------------------------15-14-12~--17/-|
A|-12-14-15-12-14-15-12-14----------12-14-15-12-14-15-12-14----------------|
E|-------------------------------------------------------------------------|


Solo 2

e|--------------------------------------------------------------------|
B|----5-5----5-5----5-5-7^-----4-4-----6-6-----8-8-8\-----------------|
G|-7^-----7^-----7^-----7^-3/5-----5/7-----7/9-----9\-----------------|
D|--------------------------------------------------------------------|
A|--------------------------------------------------------------------|
E|--------------------------------------------------------------------|

e|-------------------------------------------------------------------|
B|-----6-3-----8-5-----9-7~------------------------------------------|
G|-3h5-----5h7-----7h9-----------------------------------------------|
D|-------------------------------------------------------------------|
A|---------------------------17/-------------------------------------|
E|-------------------------------------------------------------------|



outro
  
e|--------------------------------------------------------------0------|
B|--------------------------------------------------------------0------|
G|--------------------------------------------------------------1------|
D|-2--5--2--7--5--9-------------------2-2-2-2-2-2-2-2-2-2~------2------|
A|-2--5--2--7--5--9-------------------2-2-2-2-2-2-2-2-2-2~------2------|
E|-0--3--0--5--3--7---_______________-0-0-0-0-0-0-0-0-0-0~------0------|
                      pick scratch

song order
intro/verse x10
pre chorus x1
chorus x 10
intro/verse x5
solo 1
chorus x3
solo 2
outro
Related for Pyromaniacs - Rampage tab
×
Pyromaniacs - Rampage