Song name
# A B C D E F G H I J K L M N O P Q R S T U V W X Y Z

Misc Unsigned Bands - Anavie - She Calls Me Star tab

She Calls Me Star – Anavie (An-A-vee)
Band Site - www.myspace.com/anavie

Tabbed by – Mitchell Bab.
Myspace – www.myspace.com/cow_ilunder
Email - mitchsayshello@gmail.com


   INTRO
e|-------------------------------------------------|
B|-------------------------------------------------|
G|-------------------------------------------------|
D|----------------------8—8888----3--3--3----------|
A|-0-8-7-5-3-5-7-7h9----8—8888----3--3--3----------|
D|----------------------8—8888----3--3--3----------|

e|-----------------------------------------------------|
B|-----------------------------------------------------|
G|-----10-9-7-5-7-9-9/11--------12-------10------------|  x2
D|---------------------------------(x8)-----(x8)-------|
A|-00--8--7-5-3-5-7-7/9---------10-------8-------------|
D|-00--------------------------------------------------|

  VERSE RIFF
 (not really sure on this part)
e|-------------------------------------------------|
B|---7----------5----------9----------12-----------|
G|-----5/7--------3/5--------7/9---------10/12-----|   x2
D|-------------------------------------------------|
A|-------------------------------------------------|
D|-------------------------------------------------|

  CHORUS
  Pt. 1
e|------------------------------------------------------|
B|------------------------------------------------------|
G|------------------------------------------------------|
D|------------8--------------3-----------5--------------|
A|------------8-(x8)----------3-(x8)-------5-(x16)------|
D|------------8--------------3-----------5--------------|

  Pt. 2
e|-----------------------------------------------------|
B|-----------------------------------6-----6666--------|(these 6's and 9's are a chord
G|-----------------------------------9-(x4)-9999-------|not separate notes)
D|------------8-----------3----------------------------|
A|------------8-(x8)-------3-(x8)----------------------|
D|------------8-----------3----------------------------|

  Pt. 3
e|------------------------------------------------------|
B|------------------------------------------------------|
G|------------------------------------------------------|
D|------------8--------------3-----------5--------------|
A|------------8-(x8)----------3-(x8)-------5-(x16)------|
D|------------8--------------3-----------5--------------|

  Pt. 4
e|-----------------------------------------------------|
B|--------------------------------6-6-6-6-6-6-6--------|
G|---------------------------------9-9-9-9-9-9-9-------|
D|----------8-----------3-----00-----------------------|
A|----------8-(x8)-------3-(x8)------------------------|
D|----------8-----------3------------------------------|


That’s pretty much all I figured out.
Unless I get bored again I probably won’t do much more, so if anyone wants to have their 
wack at it, more to yah.

Btw- Idk what's up with the text shit I typed it up on word and transfered it so that 
why but if there is any trouble email me.
Tap to rate this tab
 
# A B C D E F G H I J K L M N O P Q R S T U V W X Y Z