Song name
# A B C D E F G H I J K L M N O P Q R S T U V W X Y Z

Misc Unsigned Bands - The Material - Moving To Seattle tab

Artist: The Material
Song: Moving to Seattle
Album: Tomorrow - EP
Tabbed by: David Neuman (dave_neuman1552@hotmail.com)

I apologize if this isn't exactly the quality tab you'd expect,
as this is only my first tab. I wanted to find some tabs for 
this song, but it seems that there aren't any as of yet. 
There are a couple parts I'm not completely sure of so if you 
could provide me with constructive criticism that would be greatly appreciated. 
If you could let me know where I'm at fault that'd be
great, since I would correct it for everyone and acknowledge your 
help in the tab. Thanks and enjoy.

P.H - Pinch Harmonic
b - Bend

Guitar 1 - Lead
Intro/Chorus (0:08-0:35)

E------------------------------------------------------------------|
B------------------------------------------------------------------|
G---9--------7--------9---------12---------5-----------------------|
D---x--(x8)--x--(x8)--x--(x12)--xx--(x7)---x--(x6)--0-0-0-0--------|
A---7--------5--------7---------10---------3--------0-0-0-0--------|
D---------------------------------------------------0-0-0-0--------|
                                                    . . . .
                                                    <--PM-->

E------------------------------------------------------------------|
B------------------------------------------------------------------|
G---9--------7--------5--------4---------5-------------------------|
D---x--(x8)--x--(x8)--x--(x8)--x--(x4)---x--(x9)--0-0-0-0----------|
A---7--------5--------3--------2---------3--------0-0-0-0----------|
D-------------------------------------------------0-0-0-0----------|
                                                  . . . .
                                                  <--PM-->

E---------------------------------------------15------15-----------|
B-----------------------------------------13------13------13-12-10~|
G---9--------7--------9---------12----------12--12--12--12---------|
D---x--(x8)--x--(x8)--x--(x12)--xx--(x4)---------------------------|
A---7--------5--------7---------10---------------------------------|
D------------------------------------------------------------------|



Guitar 1 - Lead (not 100% sure on the first 2 chords here...)
Pre-Chorus (1:03-1:14)
E------------------------------------------------------------------|
B------------------------------------------------------------------|
G------------------------------------------------------------------|
D---14--------10--------3--3--333--3--0---14--------10-------10-9~-|
A---12--(x9)--8---(x6)--3--3--333--3--0---12--(x9)--8---(x6)-------|
D-----------------------3--3--333--3--0----------------------------|
                        .  .  ...  .
                         <---PM--->



Guitar 1 - Lead
Verse 2 (1:32-1:54)

    P.H                      <----3 Times----> 
E------------13--12------------12--13-------------12---------------|
B---8*b(9)-----------12--14~-----------12--14~--------15--13--12---|
G------------------------------------------------12-12--12--12--12-|
D------------------------------------------------------------------|
A------------------------------------------------------------------|
D------------------------------------------------------------------|



Guitar 1 - Lead
Bridge/Solo (2:23-2:56)

          <-Phaser->              <---Repeat 5 Times--->
E------------------------------------------------------------------|
B-----------------------------------9--5-----(x5)---5--------------|
G-----------------------------------------7------------------------|
D------------5-----------------------------------------------------|
A---8--------3--(x8)--------0--0-----------------------------------|
D---8--(x8)------------000--0--0-----------------------------------|
                       ...  .  . 

E------------------------------------------------------------------|
B------------------------------------------------------------------|
G---9---------10--------9--------7--------5------------------------|
D---x--(x20)--xx--(x4)--x--(x4)--x--(x4)--x--(x16)--333--333--333--|
A---7---------8---------7--------5--------3---------333--333--333--|
D---------------------------------------------------333--333--333--|



Guitar 2 - Rhythm 
Intro/Chorus (including accoustic intro) (0:08-0:35)

E------------------------------------------------------------------|
B------------------------------------------------------------------|
G---5--------4--------5--------9-----------------------------------|
D---x--(x8)--x--(x8)--x--(x8)--x--(x8)---3---3---------------------|
A---3--------2--------3--------7---------3---3---------------------|
D----------------------------------------3---3---------------------|

  Just listen to song for number of times you play the chords here
E------------------------------------------------------------------|
B------------------------------------------------------------------|
G------------------------------------------------------------------|
D---7------------10------------3-----------------------------------|
A---7------------10------------3--------Repeat 3 Times-------------|
D---7------------10------------3-----------------------------------|



Guitar 2 - Rhythm
Pre-Chorus (1:03-1:14)

E------------------------------------------------------------------|
B------------------------------------------------------------------|
G------------------------------------------------------------------|
D---7---------3---------3--3--333--3--0-----7--------3-------------|
A---7--(x9)---3--(x6)---3--3--333--3--0-----7--(x9)--3--(x6)-------|
D---7---------3---------3--3--333--3--0-----7--------3-------------|
                        .  .  ...  .



Guitar 2 - Rhythm
Bridge/Solo (2:29-2:56)

Here are the chords, it's pretty easy to figure out pattern
E------------------------------------------------------------------|
B------------------------------------------------------------------|
G------------------------------------------------------------------|
D---3---------3---------7---------7---------3---------3------------|
A---3---------3---------7---------7---------3---------3------------|
D---3---------3---------7---------7---------3---------3------------|

E------------------------------------------------------------------|
B------------------------------------------------------------------|
G------------------------------------------------------------------|
D---7---------3---------5-5-5--5-5-5--5-5-5------------------------|
A---7---------3---------5-5-5--5-5-5--5-5-5------------------------|
D---7---------3---------5-5-5--5-5-5--5-5-5------------------------|


Intro
Verse 1 (no guitar)
Pre-Chorus
Chorus
Verse 2
Pre-Chorus
Chorus
Bridge/Solo
Pre-Chorus x2
Tap to rate this tab
# A B C D E F G H I J K L M N O P Q R S T U V W X Y Z