Song name
# A B C D E F G H I J K L M N O P Q R S T U V W X Y Z

Misc Unsigned Bands - Bridge Of Faith - I Want You tab

~=SUSTAINED NOTE

VERSES
e-0~----0~----2~----0~----0~----2~----0~-|
B-0~----3~----3~----3~----3~----3~----3~-|
G-1~----0~----2~----0~----0~----2~----0~-|
D-2~----0~----0~----2~----0~----0~----2~-|
A-2~----2~----0~----3~----2~----0~----3~-|
E-O~----3~----0~----0~----3~----0~----0~-|

BRIDGE
e-0-0-
B-3-3-
G-0-0-
D-2-0-
A-3-2-
E-0-3-

CHORASE (X2)
e-0-0-0-0--2-2-2-2--0-0-0-0--0-0-0-0--|
B-3-3-3-3--3-3-3-3--3-3-3-3--3-3-3-3--|
G-0-0-0-0--2-2-2-2--0-0-0-0--0-0-0-0--|
D-0-0-0-0--0-0-0-0--0-0-0-0--2-2-2-2--|
A-2-2-2-2--0-0-0-0--2-2-2-2--3-3-3-3--|
E-3-3-3-3--0-0-0-0--3-3-3-3--0-0-0-0--|

ENDING
e-0-0--0-0-0--0-0--0-0-0--0-0-0--|
B-3-3--3-3-3--3-3--3-3-3--3-3-3--|
G-0-0--0-0-0--0-0--0-0-0--0-0-0--|
D-0-0--0-0-0--2-2--2-2-2--0-0-0--|
A-2-2--2-2-2--3-3--3-3-3--2-2-2--|
E-3-3--3-3-3--0-0--0-0-0--3-3-3--|

LYRICS:

VERSE 1
I SEE YOUR PICTURE
I SEE YOUR FACE
I SEE YOU WALKIN
AT A FASTER PACE
WHY DONT YOU
TURN AND SEE
A BETTER SIDE OF ME

VERSE 2
YES I WONDER
HOW IT WILL GO
I WONDER IF
IT WILL FLOW
LIKE THE RIVERS
OF OUR DREAMS
THAT IS HOW IT SEAMS

VERSE 3
NOW I SEE
HOW IT WILL GO
I SEE THAT
IT WILL FLOW
LIKE THE RIVERS
OF OUR DREAMS
LIKE THE OCEANS
AND THE SEAS

BRIDGE
AND I

CHORASE
I WANT YOU
I NEED YOU
I SEE YOU
I BLEED YOU
I WONT TELL
A SOLE
I WANT YOU
TO HOLD
AND I I I

ENDING
AND I I I
I SAID I I I
WANT YOU
Tap to rate this tab
# A B C D E F G H I J K L M N O P Q R S T U V W X Y Z