Song name
# A B C D E F G H I J K L M N O P Q R S T U V W X Y Z

Misc Unsigned Bands - Sorry For The Silence - My Friend Part Ii tab

In Drop D

   [Intro]
D|-0---0---0----0---0----|
A|-0---0---0----0---0----|
D|-0-0-0-0-0-0--0-0-0-0--|[4x]
G|---7---7---7----7--7---|
B|---4---4---4----4--4---|
E|-----------------------|

D|-0---0---0----0---0-----|
A|-0---0---0----0---0-----|
D|-0-0-0-0-0-0--0-0-0--0--|[4x]
G|--10--10--10---14---14--|
B|---7---7---7---11---11--|
E|------------------------|

   [Verse] (Rhythm) 
D|---------------------|
A|--8--10--12--13--12--|
D|---------------------|[4x]
G|-10--12--14--15--14--|
B|---------------------|
E|---------------------|
  {or play}
           (Lead) / = Slide
D|-------8-0----5/77-0-00000--|
A|-5/8-8-8-0----5/77-0-00000--|
D|-------8-0-8--5/77-0-00000--|[4x]
G|-7/1010---------------------|
B|-----------10---------------|
E|----------------------------|

 So lets hold hands, So lets hold hands....
   [Chorus]
D|----------------88888-55-5-0-3--|
A|-55555--8-8-8-8-88888-55-5-0-3--|
D|----------------88888-55-5-0-3--|
G|-77777-10101010-----------------|
B|--------------------------------|
E|--------------------------------|

D|----------------88888-55555--|
A|-55555--8-8-8-8-88888-55555--|
D|----------------88888-55555--|
G|-77777-10101010--------------|
B|-----------------------------|
E|-----------------------------|

   [Breakdown]
D|-0-3-00------8-7-0-5-7--0-3-00------00-00--|
A|-0-3-00-5555-8-7-0-5-7--0-3-00-5555-00-00--|
D|-0-3-00------8-7-0-5-7--0-3-00-------------|     --|
G|--------7777-------------------7777--------|       | [Overall 8x]
B|-------------------------------------------|       | Repeat Four Times, tha
E|-------------------------------------------|       | n slowed down the last
                                                     | four times.
D|-0-3-00------8-7-0-5-7--0-3-00------000-000--|     |
A|-0-3-00-5555-8-7-0-5-7--0-3-00-5555-000-000--|     |
D|-0-3-00------8-7-0-5-7--0-3-00---------------|     |
G|--------7777-------------------7777----------|   --|
B|---------------------------------------------|
E|---------------------------------------------|

   [Bridge]
D|-8--5--0--|
A|-8--5--0--|
D|-8--5--0--|
G|----------|
B|----------|
E|----------|

   [Chorus] (play till the end)
D|----------------88888-55555--|
A|-55555--8-8-8-8-88888-55555--|
D|----------------88888-55555--|
G|-77777-10101010--------------|
B|-----------------------------|
E|-----------------------------|


Written by Sorry For The Silence, Tabbed by Michael Muccioli
Tap to rate this tab
# A B C D E F G H I J K L M N O P Q R S T U V W X Y Z