Song name
# A B C D E F G H I J K L M N O P Q R S T U V W X Y Z

Misc Unsigned Bands - March To The Grave - Lager tab

Help us improve GuitareTab! Take a short survey!
-------------------------------------------------------------------------------
                             Lager - March to the Grave
-------------------------------------------------------------------------------
Tabbed by: beadhangingOne
Email: this_isnot_here@yahoo.com

INTRO

   e e e q  e e e  e e e q  e e e  e e e q  e e e  e e e q  e e e  
e|--------------------------------------------------------------------------|
B|--------------------------------------------------------------------------|
G|--------------------------------------------------------------------------|
D|--------------------------------------------------------------------------|
A|-6/7-7-7--7-7-7--6/7-7-7--7-7-7--6/7-7-7--7-7-7--6/7-7-7--7-7-7-----------|
E|-4/5-5-5--5-5-5--4/5-5-5--5-5-5--4/5-5-5--5-5-5--4/5-5-5--5-5-5-----------|


VERSE
   
   e e e e e e e e e e e e e e e e e e e e e e e e e e e e e e e  W W  
e|---------------------------------------------------------------------------|
B|---------------------------------------------------------------------------|
G|---------------------------------------------------------------------------|
D|----------------------------------------------------------------4----------|
A|-7-7-7-7-7-7-7-7-7-7-7-7-7-7-7-7-7-7-7-7-7-7-7-7-7-7-7-7-7-7-7--4----------|
E|-5-5-5-5-5-5-5-5-5-5-5-5-5-5-5-5-5-5-5-5-5-5-5-5-5-5-5-5-5-5-5--2----------|
   
   e e e e e e e e e e e e e e e e    
e|----------------------------------|
B|----------------------------------|
G|----------------------------------|
D|----------------------------------|
A|-7-7-7-7-7-7-7-7-7-7-7-7-7-7-7-7--|
E|-5-5-5-5-5-5-5-5-5-5-5-5-5-5-5-5--|

 e e e e e e e e e e e e e e e e e e e e e e e e e e e e e e e  W W  
e|---------------------------------------------------------------------------|
B|---------------------------------------------------------------------------|
G|---------------------------------------------------------------------------|
D|----------------------------------------------------------------6----------|
A|-7-7-7-7-7-7-7-7-7-7-7-7-7-7-7-7-7-7-7-7-7-7-7-7-7-7-7-7-7-7-7--6----------|
E|-5-5-5-5-5-5-5-5-5-5-5-5-5-5-5-5-5-5-5-5-5-5-5-5-5-5-5-5-5-5-5--4----------|

   e e e e e e e e e e e e e e e e    
e|----------------------------------|
B|----------------------------------|
G|----------------------------------|
D|----------------------------------|
A|-7-7-7-7-7-7-7-7-7-7-7-7-7-7-7-7--|
E|-5-5-5-5-5-5-5-5-5-5-5-5-5-5-5-5--|


CHORUS
  
   q   q   q   q   e e e q  e q  q   q   q   q   e e e q (e)
e|---------------------------------------------------------------------------|
B|---------------------------------------------------------------------------|
G|---------------------------------------------------------------------------|
D|---------------------------------------------------------------------------|
A|-12--12--12--12--9-9-9-9--9-9--12--12--12--12--9-9-7-9---------------------|
E|-10--10--9---9---7-7-7-7--7-7--10--10--9---9---7-7-5-7---------------------|

   q   q   q   q   e e e q  e q   Q   e (h)  q  q  q  e e e e e e e e e e 
e|--------------------------------------------------------------------------|
B|--------------------------------------------------------------------------|
G|--------------------------------------------------------------------------|
D|--------------------------------9---9------7--7---------------------------|
A|-12--12--12--12--9-9-9-9--9-9---7---7------5--5--7--7-7-6/7-7-7-6/7-7-7---|
E|-10--10--9---9---7-7-7-7--7-7--------------------5--5-5-4/5-5-5-4/5-5-5---|


    q  q  q  e e e e e e e e e e e e e e 
e|----------------------------------------------|
B|----------------------------------------------|
G|----------------------------------------------|
D|--7--7----------------------------------------|
A|--5--5--7--7-7-6/7-7-7-7----------------------|
E|--------5--5-5-4/5-5-5-5-5-5-5-5-5-5-5--------|
                          |natural harmonic| 

SOLO

   h   h   q   H  e e e e e e e e e e e Q  e s s e s s w  q 
e|---------------------------------------------------------------|
B|---------------------------------------------------------------|
G|-6---6---7---6--7p6-6-6-7p6-6-6-7p6-6-6--6-7p6-4-6p4-2---------|
D|---------------------------------------------------------------|
A|---------------------------------------------------------------|
E|---------------------------------------------------------------|
   e e q  e s s w    w
e|-----2------------------------|
B|--------5-7p5-2---/12b14------|
G|-2-4--------------------------|
D|------------------------------|
A|------------------------------|
E|------------------------------|

PLAY TWICE

ENDING
   
*=in triplets
  
   q* q* q* h  q* q* q*  h   q* q* q* h   q* q* q* h  
e|---------------------------------------------------------------|
B|---------------------------------------------------------------|
G|-7--7--7------7--7--7------7--7--7------9--9--9----------------|
D|-7--7--7--7---7--7--7--7---7--7--7--7---9--9--9--7-------------|
A|-5--5--5--7---5--5--5--7---5--5--5--7---7--7--7--7-------------|
E|----------5------------5------------5------------5-------------|

Related for March To The Grave - Lager tab