Song name
# A B C D E F G H I J K L M N O P Q R S T U V W X Y Z

Misc Unsigned Bands - The Past - Russian Boy tab

-------------------------------------------------------------------------------
Russian Boy - The Past
Varning For Punk Vol. 3
-------------------------------------------------------------------------------
Tabbed by: axeslash
Email: holmzito@yahoo.com

Tuning: Standard

e|---------------------------------------------------------------|
B|---------------------------------------------------------------|
G|--------------------------------14--14-14--14-14-14--14-14--14-|
D|-11--11-11--11-11-11--11-11--11-14--14-14--14-14-14--14-14--14-|
A|-11--11-11--11-11-11--11-11--11-12--12-12--12-12-12--12-12--12-|
E|--9---9--9---9--9--9---9--9---9--------------------------------| x2

e|--------------------------------------------------------------------|
B|--------------------------------------------------------------------|
G|-------------------14--14-14--14-14---------------------------------|
D|-11--11-11--11-11--14--14-14--14-14--14--14-14--14-14--9--9-9--9-9--|
A|-11--11-11--11-11--12--12-12--12-12--14--14-14--14-14--9--9-9--9-9--|
E|--9---9--9---9--9--------------------12--12-12--12-12--7--7-7--7-7--| x10

e|---------------------------------------------------------------|
B|---------------------------------------------------------------|
G|--------------------------------14--14-14--14-14-14--14-14--14-|
D|-11--11-11--11-11-11--11-11--11-14--14-14--14-14-14--14-14--14-|
A|-11--11-11--11-11-11--11-11--11-12--12-12--12-12-12--12-12--12-|
E|--9---9--9---9--9--9---9--9---9--------------------------------| x2

e|--------------------------------------------------------------------|
B|--------------------------------------------------------------------|
G|-------------------14--14-14--14-14---------------------------------|
D|-11--11-11--11-11--14--14-14--14-14--14--14-14--14-14--9--9-9--9-9--|
A|-11--11-11--11-11--12--12-12--12-12--14--14-14--14-14--9--9-9--9-9--|
E|--9---9--9---9--9--------------------12--12-12--12-12--7--7-7--7-7--| x10

e|-------------------|
B|-------------------|
G|-14----------------|
D|-14----------------|
A|-12----------------|
E|-------------------|


| /  slide up
| \  slide down
| h  hammer-on
| p  pull-off
| ~  vibrato
| +  harmonic
| x  Mute note
===============================================================================
Tap to rate this tab
# A B C D E F G H I J K L M N O P Q R S T U V W X Y Z