Song name
# A B C D E F G H I J K L M N O P Q R S T U V W X Y Z

Misc Unsigned Bands - Jerry Sword - World Gone Crazy tab

World Gone Crazy
Artist: Jerry Sword

tabbed by : JonnyWadde
standerd tuning


e------------------------------------------------------| x3
B-----------3--3------------3--3-----------------------|
G-------------0--0------------0--0---------------------|
D---2-2------------------------------------------------|
A---2-2-----------------3-3----------------------------|
E---0-0------------------------------------------------|


e------------------------------------------------------|
B----------3--3----------------------------------------|
G-----------0--0---------------------------------------|
D---2-2------------------------------------------------|
A---2-2----------------3-3-3-3-3-3-3-3-3-3-3-----------|
E---0-0------------------------------------------------|

e-------------------------------------------------------|  x2
B---------3-3--3-3----3-3-----------3-3-------2---------|
G---------0-0--0-0----2-2-----------0-0-------2---------|
D--2--X---2-2--0-0----0-0----2--X---2-2-------0-----2---|
A--2--X---3-3--2-2-----------2--X---3-3-------------2---|
E--0--X--------3-3-----------0--X--------3----------0---|


im pretty sure this is correct its my first tab but just play around with it and youll 
it
Tap to rate this tab
# A B C D E F G H I J K L M N O P Q R S T U V W X Y Z