Song name
# A B C D E F G H I J K L M N O P Q R S T U V W X Y Z

Misc Unsigned Bands - Craig Bailey - Carry Me Down tab

E|--12--10--9--------------9--9--|--9--10--9-------------------|
A|-------------12--10--12--------|------------12--10--9--7/12--|
D|-------------------------------|-----------------------------|
G|-------------------------------|-----------------------------|
B|-------------------------------|-----------------------------|
E|-------------------------------|-----------------------------|
- - - - - - - - - - - - - - - - - - - - - - - - - - - - - - - - -
E|------14------12--12--10----------|------10--12--10--8---------8--|
A|--12------12--------------10--12--|--12-----------------8--10-----|
D|----------------------------------|-------------------------------|
G|----------------------------------|-------------------------------|
B|----------------------------------|-------------------------------|
E|----------------------------------|-------------------------------|
- - - - - - - - - - - - - - - - - - - - - - - - - - - - - - - - - - - -
E|---------8--|---------8--|---------8--|---------10--|
A|--8--10-----|--8--10-----|--8--10-----|--8--10------|
D|------------|------------|------------|-------------|
G|------------|------------|------------|-------------|
B|------------|------------|------------|-------------|
E|------------|------------|------------|-------------|
- - - - - - - - - - - - - - - - - - - - - - - - - - - - -
E|---------8--|---------8--|---------8--|---------10--|
A|--8--10-----|--8--10-----|--8--10-----|--8--10------|
D|------------|------------|------------|-------------|
G|------------|------------|------------|-------------|
B|------------|------------|------------|-------------|
E|------------|------------|------------|-------------|
- - - - - - - - - - - - - - - - - - - - - - - - - - - - -
E|--8--8h10--7--7h8--|--5--5h7--5--5h7--|--3--3h5--1--1h3--|--0--|
A|-------------------|------------------|------------------|--0--|
D|-------------------|------------------|------------------|-----|
G|-------------------|------------------|------------------|-----|
B|-------------------|------------------|------------------|-----|
E|-------------------|------------------|------------------|-----|
Tap to rate this tab
# A B C D E F G H I J K L M N O P Q R S T U V W X Y Z