Song name
# A B C D E F G H I J K L M N O P Q R S T U V W X Y Z

Misc Unsigned Bands - Colby Johnson - Nadeems Band tab

Help us improve GuitareTab! Take a short survey!
Riff:
[------------------------------]
[------------------------------]
[------------------------------]
[------7-----8-----7-----3---5-] x8
[5-----------------------------]
[--0-0---0-0---0-0---0-0---0---]
   . .   . .   . .   . .   . 

Chorus:
[-------- --- -- -]
[-------18--18-18-]
[-------14--14-14-]  x4
[0--0-0-0 --0 -0 -]
[0--0-0-0 --0 -0 -]
[0--0-0-0 --0 -0 -]
 .  . . 

Riff x4

Chorus x4

Breakdown (Wait Till I Post New Recording)

Keys (I'll Play This Under Keys):
[---------]
[---------]
[---------]
[0---2---5]
[0---2---5]
[0---2---5]
 .   .   .

Riff x4

Chorus x4

Breakdown

-End



Related for Colby Johnson - Nadeems Band tab