Song name
# A B C D E F G H I J K L M N O P Q R S T U V W X Y Z

Misc Unsigned Bands - Enzyte Jingle Whistle Song - Commercial tab

Help us improve GuitareTab! Take a short survey!
E||---7-5-3-2-----9-7-----------9-7-5-3-0---7-5--------------------------|
B||-3---------3-5-------------5-----------3------------------------------|
G||----------------------------------------------------------------------|
D||----------------------------------------------------------------------|
A||----------------------------------------------------------------------|
E||----------------------------------------------------------------------|

E||---7-5-3-2-----9-7-------3-2-0-5-7-3------2-3-0-----------------------|
B||-3---------3-5-----------------------------------3~-------------------|
G||----------------------------------------------------------------------|
D||----------------------------------------------------------------------|
A||----------------------------------------------------------------------|
E||----------------------------------------------------------------------|

(Inspired by the "Commercials You Just Cant Stand " thread in the pit)




Related for Enzyte Jingle Whistle Song - Commercial tab