Song name
# A B C D E F G H I J K L M N O P Q R S T U V W X Y Z

Misc Unsigned Bands - Trash Talk - Scatter tab

Help us improve GuitareTab! Take a short survey!
plagues ep
malfunction records
www.trashtalkhc.com
www.myspace.com/trashtalkfu
d standard tuning


-------------------------------------------------------|
-------------------------------------------------------|
-9-9-9-10-10-10-9-9-9-10-10-10-------------------------|
-9-9-9-10-10-10-9-9-9-10-10-10-2-2-2-2-2-2-2-2-2-2-2-2-|x4
-7-7-7-8--8--8--7-7-7-8--8--8--2-2-2-2-2-2-2-2-2-2-2-2-|
-------------------------------0-0-0-0-0-0-0-0-0-0-0-0-|


------------------------------------------------|
------------------------------------------------|
------------------------------------------------|
-2~---------------------------------------------|
-2~---------------------------------------------|
-0~---------------------------------------------|
Related for Trash Talk - Scatter tab