Song name
# A B C D E F G H I J K L M N O P Q R S T U V W X Y Z

Misc Unsigned Bands - Trash Talk - Babylon Ca tab

plagues ep
malfunction records
www.trashtalkhc.com
www.myspace.com/trashtalkfu
d standard tuning


------------------------------------------------|
------------------------------------------------|
-5-7-7-7-7--8-7-5-7-5-6-------------------------|
-5-7-7-7-7--8-7-5-7-5-6-5~--5~------------------|
-3-5-5-5-5--6-5-3-5-3-4-5~--5~------------------|
------------------------3~--3~------------------|


------------------------------------------------|
------------------------------------------------|
---------3-3-3-3--------------------------------|
-5-5-5-5-3-3-3-3-3-3-3-3-6-6-3-3----------------|
-5-5-5-5-1-1-1-1-3-3-3-3-6-6-3-3----------------|
-3-3-3-3---------1-1-1-1-4-4-1-1----------------|


lead guitar
------------------------------------------------|
-8----------------------------------------------|
-11^--10--13-13-13-10--x2--11^------------------|
------------------------------------------------|
------------------------------------------------|
------------------------------------------------|
Tap to rate this tab
# A B C D E F G H I J K L M N O P Q R S T U V W X Y Z