Song name
# A B C D E F G H I J K L M N O P Q R S T U V W X Y Z

Misc Unsigned Bands - Trash Talk - Flood tab

plagues ep
malfunction records
www.trashtalkhc.com
www.myspace.com/trashtalkfu
d standard tuning


-------------------------------------------------|
-------------------------------------------------|
-2----5----7-----/6-6-6-5-5-5-----2~-----2-2-2-2-|
-2-x4-5-x4-7-x8--/6-6-6-5-5-5--x4-2~-x3--2-2-2-2-|
-0----3----5-----/4-4-4-3-3-3-----0~-----0-0-0-0-|
-------------------------------------------------|


------------------------------------------------|
------------------------------------------------|
-2-2-2-5-5-5-----2-2-2-5-5-5--------------------|
-2-2-2-5-5-5-5~--2-2-2-5-5-5-4~-4------x2-------|
-0-0-0-3-3-3-5~--0-0-0-3-3-3-4~-4-x8------------|
-------------3~--------------2~-2---------------|
                                .


------------------------------------------------|
------------------------------------------------|
-2`---------------------------------------------|
-2`---------------------------------------------|
-0`---------------------------------------------|
------------------------------------------------|
Tap to rate this tab
 
# A B C D E F G H I J K L M N O P Q R S T U V W X Y Z