Song name
# A B C D E F G H I J K L M N O P Q R S T U V W X Y Z

Misc Unsigned Bands - Trash Talk - Manifest Destination tab

plagues ep
malfunction records
www.trashtalkhc.com
www.myspace.com/trashtalkfu
d standard tuning


--------------------------------------------------------------|
--------------------------------------------------------------|
-7-7-7-7-10-10-10-10-6-6-6-6-9-9-9-9-5-5-5-5-8-8-8-8-6-5-6-7--|
-7-7-7-7-10-10-10-10-6-6-6-6-9-9-9-9-5-5-5-5-8-8-8-8-6-5-6-7--|x4
-5-5-5-5-8--8--8--8--4-4-4-4-7-7-7-7-3-3-3-3-6-6-6-6-4-3-4-5--|
--------------------------------------------------------------|
                                                     . . . .


------------------------------------------------------------|
------------------------------------------------------------|
------------------------------------------------------------|
-7-7-7-5-7-5-4~--5-5-4~--7-7-4~--5~--7~--5-4~--5~--7~--5-4~-|
-7-7-7-5-7-5-4~--5-5-4~--7-7-4~--5~--7~--5-4~--5~--7~--5-4~-|
-5-5-5-3-5-3-2~--3-3-2~--5-5-2~--3~--5~--3-2~--3~--5~--3-2~-|
Tap to rate this tab
# A B C D E F G H I J K L M N O P Q R S T U V W X Y Z