Song name
# A B C D E F G H I J K L M N O P Q R S T U V W X Y Z

Misc Unsigned Bands - Trash Talk - Lepers To Feed The Lepers tab

plagues ep
malfunction records
www.trashtalkhc.com
www.myspace.com/trashtalkfu
d standard tuning


------------------------------------------------|
------------------------------------------------|
-2-2-2-2-4-5-2-2-2-2-6-5-4-5-7-6-5-4-3----------|
-2-2-2-2-4-5-2-2-2-2-6-5-4-5-7-4-5-4-3-2~--5----|
-0-0-0-0-2-3-0-0-0-0-4-3-2-3-5-2-3-2-1-2~--5----|
---------------------------------------0~--3----|


------------------------------------------------|
------------------------------------------------|
------------------------------------------------|
-2~--3-6-5~--x3-2~--3-6-5-----------------------|
-2~--3-6-5~-----2~--3-6-5-----------------------|
-0~--1-4-3~-----0~--1-4-3-----------------------|


lead guitar
------------------------------------------------|
-0-1-4-3--x2------------------------------------|
------------------------------------------------|
------------------------------------------------|
------------------------------------------------|
------------------------------------------------|
Tap to rate this tab
 
# A B C D E F G H I J K L M N O P Q R S T U V W X Y Z