Song name
# A B C D E F G H I J K L M N O P Q R S T U V W X Y Z

Misc Unsigned Bands - Emer Oneill - Buen Camino tab

-------------------------------------------------------------------------------
			     BUEN CAMINO - Emer O'Neill
----------------------------------------------------------------------------
This song is a simple song. It is only made effective when played by ear using the heel 
your palm during the middle of the song to tap a heartbeat rythem off the saddle of your 
The artist is a Belfast girl called Emer, check her myspace @:www.myspace.com/emeroneill1982

Tabbed by:Smippie
Email:

Tuning:Standard
This is the first part of the song repeated.
e|---------------------------------------------------------------------------|
B|---------------------------------------------------------------------------|
G|---------------------------------------------------------------------------|
D|-0-0-0-0-------------------------------------------------------------------|
A|-2-0-0-3-------------------------------------------------------------------|
E|-0-2-3-0-------------------------------------------------------------------|
This second part is all about timing with tapping the saddle and hammering on each of 
notes. Repeated
e|---------------------------------------------------------------------------|
B|---------------------------------------------------------------------------|
G|---------------------------------------------------------------------------|
D|---------------------------------------------------------------------------|
A|-2-----3h0h3h0h3h0h3h0h3h0-------------------------------------------------|
E|---2-3---------------------------------------------------------------------|
This third part is identical to the first part only Emer plays it with more intensity by 
a slap string strum to it. Repeat until the end of the song
e|--------------------------------------------------------------------------|
B|--------------------------------------------------------------------------|
G|--------------------------------------------------------------------------|
D|-0-0-0-0------------------------------------------------------------------|
A|-2-0-0-3------------------------------------------------------------------|
E|-0-2-3-0------------------------------------------------------------------|
Tap to rate this tab
# A B C D E F G H I J K L M N O P Q R S T U V W X Y Z