Song name
# A B C D E F G H I J K L M N O P Q R S T U V W X Y Z

Misc Unsigned Bands - Euphorias Depression - Better tab

Intro/Verse
e|------------------------------------------|
B|------------------------------------------|
G|-----6---------6---------6---------6------|
D|---7---7-----7---7-----7---7-----7---7----|
A|-4---------0------------------------------|
D|---------------------4---------0----------|

And im not to sure of the chord progression in the chorus but i think its something like this....

Chorus
e|--0---0---0---0------|
B|--0---0---0---0------|
G|--4---6---9---2------|
D|--2---4---7---0------|
A|--2---4---7---0------|
D|--2---4---7---0------|

Verse 2
e|---------------------|
B|---------------------|
G|---6---6---6---6-----|
D|---7---7---7---7-----|
A|---4---0---0---0-----|
D|---x---0---4---0-----|

Before Bridge
e|---0---0---0-----|
B|---0---0---0-----|
G|---6---4---2-----|
D|---4---2---0-----|
A|---4---2---0-----|
D|---4---2---0-----|

Bridge
e|------------------------------------------|
B|------------------------------------------|
G|-----6---------6---------6---------6------|
D|---7---7-----7---7-----7---7-----7---7----|x4
A|-4---------0------------------------------|
D|---------------------4---------0----------|

then...
       
e|---------------------|
B|---------------------|
G|---6---6---6---6-----|
D|---7---7---7---7-----|
A|---4---0---0---0-----|
D|---x---0---4---0-----|

and then go back to the chorus and your done

Tap to rate this tab
 
# A B C D E F G H I J K L M N O P Q R S T U V W X Y Z