Song name
# A B C D E F G H I J K L M N O P Q R S T U V W X Y Z

Misc Unsigned Bands - Ampd - Her Love tab

Help us improve GuitareTab! Take a short survey!
This is a song by my band, it's kinda slow, no distortion

Tuning:Standard


The song stats off by letting the chords ring out the randomly picking some strings

Intro and Chorus
----------------------------------------------------------------|
----------------------------------------------------------------|
----------------------------------------------------------------|
-4-----11----13-----9-------------------------------------------|
-4-----11----13-----9-------------------------------------------|
-2-----9-----11-----7----repeat 4 times-------------------------|

Verse(palm muted)
-----------------------------------------------------------------------|
-----------------------------------------------------------------------|
-----------------------------------------------------------------------|
--4-4-4-4-4-4-4-4-11-11-11-11-11-11-13-13-13-13-13-13-13-13--9-9-9-9---|
--4-4-4-4-4-4-4-4-11-11-11-11-11-11-13-13-13-13-13-13-13-13--9-9-9-9---|
--2-2-2-2-2-2-2-2--9-9-9-9-9-9-9-9--11-11-11-11-11-11-11-11--7-7-7-7---|

--------------------------------------------------------------|
--------------------------------------------------------------|
--------------------------------------------------------------|
-------7h9-9--------------------------------------------------|
---7h9--------------------------------------------------------|
--------------------------------------------------------------|

Thats the entire song...no solo in this one and just repeat

Order:Intro
      Verse 4 times
      Chorus
      Verse 8 times
      Chorus
      Intro as outro
Related for Ampd - Her Love tab