Guitaretab - guitar tabs
Song name
# A B C D E F G H I J K L M N O P Q R S T U V W X Y Z

Misc Unsigned Bands - Kraze - I Dont Know Really tab

(I don't really know the symbol on how to let a note ring, so sorry if it confuses you ^^) 

(^=let ring)
[ Tab from: http://www.guitaretab.com/m/misc-unsigned-bands/110637.html ]
------------------------------------------------------
------------------------------------------------------
----------------5--55--55----2--22--22----4--44--44---  x2
---2--22--22----5--55--55----2--22--22----4--44--44---
---2--22--22----3--33--33----0--00--00----2--22--22---
---0--00--00------------------------------------------

------------------------------------------------------
------------------------------------------------------
------------------------------------------------------  x2
------------------------------------------------------
---9--99--99----7--77--77-----------------------------
---7^-----------7^-----------7--77--77----7--77--77---
-----------------------------10^----------7^----------
Related for Kraze - I Dont Know Really tab