Song name
# A B C D E F G H I J K L M N O P Q R S T U V W X Y Z

Misc Unsigned Bands - The Hussys - We Expected tab

Help us improve GuitareTab! Take a short survey!
========================================
              The Hussy's
              We Expected
Track #2 from the 2006 E.P. "Tiger E.P."
========================================

Tabbed by Pedro Macedo, A.K.A. Linkerman
Extremely easy song, fun to play, has a nice "punkish" feeling.
I tabbed the rhythm guitar for the whole song.
Comments and corrections are welcome!
Contact me: o_samaritano-hellboy(at)sapo.pt


Standard tuning

Verse                                           x3
e|-------------||-------------------------------||-------------|
B|-------------||-------------------------------||-------------|
G|-7~-7~-7~-7~-||o---------------9~-9~-9~-9~-0-o||-------------| x2
D|-7~-7~-7~-7~-||o-7~-7~-7~-7~-0-9~-9~-9~-9~-0-o||-7~-7~-7~-7~-|
A|-5~-5~-5~-5~-||--7~-7~-7~-7~-0-7~-7~-7~-7~-0--||-7~-7~-7~-7~-|
E|-------------||--5~-5~-5~-5~-0----------------||-5~-5~-5~-5~-|

Chorus                                                                  x2
e|-------------------------------------||-------------------------------||
B|-------------------------------------||-------------------------------||
G|-7-7-7-7-7-7-------------9-9-9-9-9-9-||o-----------------------------o|| x2
D|-7-7-7-7-7-7-7-7-7-7-7-7-9-9-9-9-9-9-||o-5-5-5-5\9-9-9-9\7-7-7-7-7-7-o||
A|-5-5-5-5-5-5-7-7-7-7-7-7-7-7-7-7-7-7-||--5-5-5-5\9-9-9-9\7-7-7-7-7-7--||
E|-------------5-5-5-5-5-5-------------||--3-3-3-3\7-7-7-7\5-5-5-5-5-5--||

Play Verse  1x
Play Chorus 2x

Break (smooth downstrokes, let ring)
e|-----------------------------------|
B|-----------------------------------|
G|-7~~-------7~~-------7~~-------7~~-|
D|-7~~--7~~--7~~--7~~--7~~--7~~--7~~-|
A|-5~~--7~~--5~~--7~~--5~~--7~~--5~~-|
E|------5~~-------5~~-------5~~------|

Play Verse  x2
Play Chorus x4, fading until the end
Related for The Hussys - We Expected tab