Song name
# A B C D E F G H I J K L M N O P Q R S T U V W X Y Z

Misc Unsigned Bands - Liz Ball - Louise tab

Tuning: Standard

e|---------------------------------------------------------------------------|
B|---8------8------8----7-------7-------7-----5-------5------5---------------|
G|-----0------0-----------0-------0-------------0-------0--------------------|
D|---------------------------------------------------------------------------|
A|-7------7------7----5-------5------5-----3-------3-------3-----------------|
E|---------------------------------------------------------------------------|

e|---------------------------------------------------------------------------|
B|----5--------5------------8---------8----------8-------7--------7--------7-|
G|------0-----------------------0--------0-------------------0-------0-------|
D|---------------------------------------------------------------------------|
A|-3-------3-------5----7----------7---------7-------5---------5---------5---|
E|---------------------------------------------------------------------------|

e|----------------------------------------------------------------------------|
B|----5---------5--------5-----5-------5--------------------------------------|
G|-------0---------0-------------0--------0-----------------------------------|
D|----------------------------------------------------------------------------|
A|--3--------3--------3------3-------3-------5--------------------------------|
E|----------------------------------------------------------------------------|

e|---------------------------------------------------------------------------|
B|---8------8------8----7-------7-------7-----5-------5------5---------------|
G|-----0------0-----------0-------0-------------0-------0--------------------|
D|---------------------------------------------------------------------------|
A|-7------7------7----5-------5------5-----3-------3-------3-----------------|
E|---------------------------------------------------------------------------|

e|---------------------------------------------------------------------------|
B|----5--------5------------8---------8----------8-------7--------7--------7-|
G|------0-----------------------0--------0-------------------0-------0-------|
D|---------------------------------------------------------------------------|
A|-3-------3-------5----7----------7---------7-------5---------5---------5---|
E|---------------------------------------------------------------------------|

e|----------------------------------------------------------------------------|
B|--5-------------------------------------------------------------------------|
G|----------------------------------------------------------------------------|
D|----------------------------------------------------------------------------|
A|--3-------------------------------------------------------------------------|
E|----------------------------------------------------------------------------|

Repeat this for the intro, verses and prechorus.

Then play these chords for the instrumental chorus

e|--3------3------3----3------------------------------------------------------|
B|--3------3------3----3------------------------------------------------------|
G|---------2------------------------------------------------------------------|
D|--2------0------2----2------------------------------------------------------|
A|--2------x------3----3------------------------------------------------------|
E|---------x------x----x------------------------------------------------------|

The bridge uses these chords as well.

       -----


A girl's obsession
She barely knew his name
She was in love with him for all her life
But her feelings were insane.

She won't let him go
She won't listen to reason
Won't even let him know
How she feels
Oh how she feels.

A boy who never noticed
That she watched him every day
Never knew how much he meant to her
His ignorance drove her insane.

She won't let him go
She won't listen to reason
Won't even let him know
How she feels
Oh how she feels.

She was in love with him for all her life
And it really tore her up inside
She was in love with him for all her life
And he never knew, never knew,
She was in love with him for all her life
And it really tore her up inside
She was in love with him for all her life
And he never knew, never knew, never knew, never knew.

She won't let him go
She won't listen to reason
Won't even let him know
How she feels
Oh how she feels.
Tap to rate this tab
# A B C D E F G H I J K L M N O P Q R S T U V W X Y Z