Song name
# A B C D E F G H I J K L M N O P Q R S T U V W X Y Z

Misc Unsigned Bands - Liz Ball - How We Know Were Alive tab

Tuning: Standard

e|---------------------------------------------------------------------------|
B|----3------3------3-----3-------3-------3------3--------3-------3----------|
G|------0-------0------------0-------0--------------0--------0---------------|
D|--------0-------0-------------0-------0--------------0-------0-------------|
A|--------------------------------------------3------------------------------|
E|--3------------------0-----------------------------------------------------|

e|----------------------------------------------------------------------------|
B|-----3------3--------3-----3-------3------3------3-------3-------3----------|
G|-------0-------0--------------0-------0-------------0-------0---------------|
D|---------0--------0-------------0-------0-------------0-------0-------------|
A|--0-------------------------------------------------------------------------|
E|------------------------3---------------------0-----------------------------|

e|---------------------------------------------------------------------------|
B|----3-----3-----3------3------3-----3--------------------------------------|
G|------0-----0-------------0-----0------------------------------------------|
D|--------0-----0-------------0-----0----------------------------------------|
A|--3-----------------0------------------------------------------------------|
E|---------------------------------------------------------------------------|

Play this for the intro and verses.

e|---------------------------------------------------------------------------|
B|-----3-----3------3------3------3-----3-------3------3------3--------------|
G|-------0------0-------------0-----0-------------0------0-------------------|
D|---------0------0-------------0-----0--------------0-----0-----------------|
A|----------------------3--------------------0-------------------------------|
E|--0------------------------------------------------------------------------|

e|---------------------------------------------------------------------------|
B|-----3-------3------3------------------------------------------------------|
G|-------0-------0-----------------------------------------------------------|
D|----------0------0---------------------------------------------------------|
A|--0------------------------------------------------------------------------|
E|---------------------------------------------------------------------------|

Play this for the pre-chorus


e|---------------------------------------------------------------------------|
B|----3------3------3-----3-------3-------3------3--------3-------3----------|
G|------0-------0------------0-------0--------------0--------0---------------|
D|--------0-------0-------------0-------0--------------0-------0-------------|
A|--------------------------------------------3------------------------------|
E|--3------------------0-----------------------------------------------------|

e|----------------------------------------------------------------------------|
B|-----3------3--------3-----3-------3------3------3-------3-------3----------|
G|-------0-------0--------------0-------0-------------0-------0---------------|
D|---------0--------0-------------0-------0-------------0-------0-------------|
A|--0-------------------------------------------------------------------------|
E|------------------------3---------------------0-----------------------------|

e|---------------------------------------------------------------------------|
B|----3-----3-----3------3------3-----3-------3------3------3----------------|
G|------0-----0-------------0-----0--------------0------0--------------------|
D|--------0-----0-------------0-----0--------------0------0------------------|
A|--3-----------------0------------------------------------------------------|
E|-----------------------------------------0---------------------------------|

e|---------------------------------------------------------------------------|
B|-----3-----3------3------3-----3-------3------3------3-------3-------------|
G|-------0------0------------0------0--------------0------0------------------|
D|---------0------0------------0-------0-------------0------0----------------|
A|--3----------------------------------------0-------------------------------|
E|---------------------3-----------------------------------------------------|

e|---------------------------------------------------------------------------|
B|-----3------3-----3-----3-----3-----3------3-----3------3------------------|
G|-------0------0-----------0-----0------------0-----0-----------------------|
D|---------0-----0------------0-----0------------0-----0---------------------|
A|---------------------3-----------------------------------------------------|
E|--0-------------------------------------3----------------------------------|

e|---------------------------------------------------------------------------|
B|-----3-----3------3--------3-----3-----3-------3-----3-----3---------------|
G|-------0------0--------------0-----0-------------0-----0-------------------|
D|---------0------0--------------0----0---------------0----0-----------------|
A|--0---------------------3------------------3-------------------------------|
E|---------------------------------------------------------------------------|

Play this for the chorus. End the song on a G chord.

      -----


I'm afraid of losing
I'm afraid of letting go
I can feel I'm moving
Although you're here I feel alone

Don't leave me now
Don't leave me now

Cause I'm falling into something that is bigger than myself
I have no control, I'm letting go of all I've ever held
And if you can't save me, that's ok, I'll always know you tried
Everybody falls down sometimes, that's how we know we're alive, oh.

I'm afraid to feel you
In case your touch gets ripped away
You're holding on to my hand
The only reason I'm awake

Don't leave me now
Don't leave me now

Cause I'm falling into something that is bigger than myself
I have no control, I'm letting go of all I've ever held
And if you can't save me, that's ok, I'll always know you tried
Everybody falls down sometimes, that's how we know we're alive, oh.

I'm afraid of losing
I'm afraid of letting go

Don't leave me now
Don't leave me now

Cause I'm falling into something that is bigger than myself
I have no control, I'm letting go of all I've ever held
And if you can't save me, that's ok, I'll always know you tried
Everybody falls down sometimes, that's how we know we're alive, oh.
Tap to rate this tab
# A B C D E F G H I J K L M N O P Q R S T U V W X Y Z