Song name
# A B C D E F G H I J K L M N O P Q R S T U V W X Y Z

Misc Unsigned Bands - Liz Ball - Lies And Apologies tab

Highlighted       Show chord diagrams
Intro:

e|--1---------1---------1------0--------0--------0---------------------------|
B|-----3---------3---------3------1--------1---------1-----------------------|
G|--------2---------2----------------2--------2------------------------------|
D|---------------------------------------------------------------------------|
A|---------------------------------------------------------------------------|
E|---------------------------------------------------------------------------|

e|--1--------1--------1------0--------0--------0------------------------------|
B|------3-------3---------3------1--------1--------1--------------------------|
G|---------2-------2----------------2--------2--------------------------------|
D|----------------------------------------------------------------------------|
A|----------------------------------------------------------------------------|
E|----------------------------------------------------------------------------|

Dm
Lying in my bed, don't know what I'm thinking
Am
Everything you said beginning to sink in
   Dm
I bury my head underneath my pillow
       Am
Your words can't find my broken ego
   Dm
I wanna fly away like a bird in winter
Am
Maybe one day I'll wake up with wings to
Dm
Escape your lies and apologies
Am                                 Em    G
Maybe one day I'll be truly free again, hey.


       Dm     Em    Am
Don't let me fade away
       Dm     Em    Am
Don't let me fade away
       Dm     Em    Am
Don't let me fade away
       Dm     Em    Am
Don't let me fade away.


       Dm
Seems like it was another lifetime
Am
Smiling and laughing, it was all fine
Dm
Do you care or don't you realise
Am
That I'm there, saying my goodbyes cause
Dm
Sticks and stones might break my bones
     Am
But words destroyed my very soul
     Dm
You say you're sorry, I know better
Am                                     Em   G
One of these days you might regret it all, oh.


       Dm     Em    Am
Don't let me fade away
       Dm     Em    Am
Don't let me fade away
       Dm     Em    Am
Don't let me fade away
       Dm     Em    Am
Don't let me fade away.

Dm
Look at what you've done to me
      Am
I'm lying on the floor as I start to bleed
  Dm
I gotta get away, I just can't stay here
   Am                                       Em
I took some pills, will you shed a tear for me?
    G
Oh please.


       Dm     Em    Am
Don't let me fade away
       Dm     Em    Am
Don't let me fade away
       Dm     Em    Am
Don't let me fade away
       Dm     Em    Am
Don't let me fade away
       Dm     Em    Am
Don't let me fade away
       Dm     Em    Am
Don't let me fade away
       Dm     Em    Am
Don't let me fade away
       Dm     Em    Am
Don't let me fade away.
Tap to rate this tab
 
# A B C D E F G H I J K L M N O P Q R S T U V W X Y Z