Guitaretab - guitar tabs
Song name
# A B C D E F G H I J K L M N O P Q R S T U V W X Y Z

Misc Unsigned Bands - Wretched Gorge - Drowning In Liquified Human Sludge tab

 Song: Drowning In Liquified Human Sludge
 Band: Wretched Gorge
Album: 6 Way Split

Transcribed By: Scotty The Zombie

Copyright (c) 2008 Wretched Gorge

.  - palm mute           /  - slide up to 
\  - slide down to       ~  - vibrato 
h  - hammer on           b  - Bend 
p  - pull off            Suffixes for bend 
t  - tap                 f  - full bend    h - half bend 
^ - pinched harmonic     q  - quarter bend t - tap bend 
*  - see comment         H  - Hold bend    r release bend 
x  - Stuccatto           ~  - vibrato bend 
tr - Trill               () - ghost note, sustained note 
"  - tremolo note        <> - Natural Harmonic

Tuning: G# Standard (G# C# F# B D# G#)

Tempo - 240bpm
[ Tab from: http://www.guitaretab.com/m/misc-unsigned-bands/110834.html ]
Riff 1 x4
||----------------|----------------|----------------|----------------||
||----------------|----------------|----------------|----------------||
||----------------|----------------|----------------|----------------||
||----------------|----------------|----------------|----------------||
||5---5---3---3---|4---4---2---2---|5-5-3-3-4-4-2-2-|5-5-3-3-4-4-2-2-||
||3---3---1---1---|2---2---0---0---|3-3-1-1-2-2-0-0-|3-3-1-1-2-2-0-0-||

Bass Solo x1
||----------------|----------------||
||----------------|----------------||
||----------------|----------------||
||3-3-1-1-2-2-0-0-|3-3-1-1-2-2-0-0-||

Riff 2 x4
||----------------|----------------||
||----------------|----------------||
||----------------|----------------||
||----------------|----------------||
||5-5-3-3-4-4-2-2-|5-5-3-3-4-4-2-2-||
||3-3-1-1-2-2-0-0-|3-3-1-1-2-2-0-0-||

Outro x1
||----------------|----------------||
||----------------|----------------||
||----------------|----------------||
||----------------|----------------||
||2---------------|----------------||
||0---------------|----------------||

END

www.myspace.com/liquifiedhumansludge
Related for Wretched Gorge - Drowning In Liquified Human Sludge tab
Advertisement will be closed in 10 seconds