Song name
# A B C D E F G H I J K L M N O P Q R S T U V W X Y Z

Misc Unsigned Bands - Paralysis - Get Ready For The Funeral tab

Help us improve GuitareTab! Take a short survey!
Highlighted       Show chord diagrams
Intro: G  Em  A  Em (x2)

VERSE

G                            Em
I've, never seen you in this way
                                  A
All those clothes you wore yesterday
                              Em
They'll all be on you again today

G                              Em
And oh, everythings the same today
                            A
Nothings gonna change it's way
                              Em
No nothings gonna change it's way

CHORUS

G             A             Em
You'd, be the only one I'd save
G                     A            Em
You're name has been written on a grave
G            A                 Em
And, they're digging it for today
G               A             Em
I'm sorry, but it's the only way

VERSE
G                            Em
I've never seen you in this way
                        A
Everythings the same today
                               Em
You've still got your rent to pay

G                              Em
And oh, everythings the same today
                            A
Nothings gonna change it's way
                              Em
No nothings gonna change it's way

CHORUS (Same as first one)

VERSE
G                             Em
I, never heard what you gotta say
                                    A
All the things that you wanted to change
                      Em
Make it better for today

G                              Em
And oh, everythings the same today
                            A
Nothings gonna change it's way
                              Em
No nothings gonna change it's way

CHORUS (Same as first one)

SOLO

e 12-15-p-------------------------12-15-/-------------15-12-~-12-15-/-------|
B -------12-15-p--------12-15-p-12-------15-12-~-12-15----------------------|
D --------------12-14-p-----------------------------------------------------|
G --------------------------------------------------------------------------|
A --------------------------------------------------------------------------|
E --------------------------------------------------------------------------|

e --------------15-12-~-----------------------------------------------------|
B -15-12-~-12-15------------------------------------------------------------|
D ----------------------12-14-p---14-/-12-----------------------------------|
G -----------------------------14--------14---------------------------------|
A --------------------------------------------------------------------------|
E --------------------------------------------------------------------------|

CHORUS (Same as first one)

G                            Em
I've, never seen you in this way
                                  A
All those clothes you wore yesterday
                              Em
They'll all be on you again today

G                              Em
And oh, everythings the same today
                            A
Nothings gonna change it's way
                              Em
No nothings gonna change it's way

CHORUS (Same as first one)
Related for Paralysis - Get Ready For The Funeral tab