Song name
# A B C D E F G H I J K L M N O P Q R S T U V W X Y Z

Misc Unsigned Bands - Saturday Night At The Apollo - Grey tab

-------------------------------------------------------------------------------
			     SONG NAME- Grey Band Name- Saturday Night At The Apollo
-------------------------------------------------------------------------------
Tabbed by: Austin G.
Email: austingalaviz@q.com

Tuning: Standard (E-A-D-G-b-e
Verse:
e|-------------------------------------------------------------------------------------|
B|-------------------------------------------------------------------------------------|
G|--------------------------------------------------------------------------4---------|
D|-----2------2--1-----------------------------------------------9-------2--------------|
A|------------------------------------7------7--6-----------9----------------------------|
E|-0-------0--------------------5--------5-----------7-------7-------0-----0-----------|
Chorus:
e|------------------------------------------------------------------------------------|
B|------------------------------------------------------------------------------------|
G|------------------------------------------------------------------------------------|
D|----------------9----------------9-----------2---------4----------------------------|
A|---------7----------------9---------------------------------------------------------|
E|----5--------5---------7------7---------0-------0-----------------------------------| x2
After The Chorus:

e|---------------------------------------------------------------------------------|
B|---------------------------------------------------------------------------------|
G|---------------------------------------------------------------------------------|
D|------------------------------------------2-----------2----1----------------------|
A|----------9-------------7--------------------------------------------------------|
E|------7-------------5-------------0----------0-----------------------------------|
That's pretty much it. It's a really easy song. From the chorus, you strum the chords 
either in power chords or in barre chords. Basically just pick the first notes of the 
and you got it.
Enjoy


| /  slide up
| \  slide down
| h  hammer-on
| p  pull-off
| ~  vibrato
| +  harmonic
| x  Mute note
===============================================================================
Tap to rate this tab
 
# A B C D E F G H I J K L M N O P Q R S T U V W X Y Z