Song name
# A B C D E F G H I J K L M N O P Q R S T U V W X Y Z

Misc Unsigned Bands - Broken Chandalier - Days Gone By tab

Help us improve GuitareTab! Take a short survey!
my tab of days gone by, from a columbus band i found on myspace, the song is days gone 
not sure if its right but thought id give it a try
standard tuning applies, any questions contact me at guitargod@aol.com


E|--------------------7--10--12--|------9----------9----------|   I
B|--7-----7-----7----------------|--11-----11-------------11--|   N
G|--7--7-----------7-----7---9---|--11---------11-----11------|   T
D|--9--------9-------------------|--8-------------------------|   R
A|--9----------------------------|----------------------------|   O
E|--7----------------------------|----------------------------|

E|--5-----5--5--7--5--------5--7--7-----|-----7-----7--------7--|
B|-----5-----------------5-----------7--|--7-----------7--------|
G|--------------------------------------|--7-----7--------7-----|
D|--7-----------------7--------7--------|-----------------------|
A|--------------------------------------|-----------------------|
E|--------------------------------------|-----------------------|

E|-----7-----7--------7-------------10--|
B|--8-----------8--------8--10^h12------|
G|--7-----7--------7--------------------|
D|--9-----------------------------------|
A|--------------------------------------|
E|--------------------------------------|

E|------10----------10----------10----------10------|
B|--10------------------------------10----------11--|
G|----------11--11------11--11----------------------|
D|--------------------------------------12----------|
A|--------------------------------------------------|
E|--------------------------------------------------|

E|-----7-----7--------7--7---------|------9------9----------9--|
B|--------------8--8--------8------|----------------11---------|
G|--9-----9--------------------9---|--11-----11---------11-----|
D|---------------------------------|---------------------------|
A|-----------------------------10--|--9------------------------|
E|---------------------------------|---------------------------|

E|--7--7-----10--------7--7-----------|------9----------9----------|
B|--7-----7------7--7--------7--------|--11-----11-------------11--|
G|--7---------------------------7^h9--|--11---------11-----11------|
D|--9--------9------------------------|--8-------------------------|
A|--9---------------------------------|----------------------------|
E|--7---------------------------------|----------------------------|

E|--5-----5--5--7--5--------5--7--7-----|--------------------7--|
B|-----5-----------------5-----------7--|--7--7-----------------|
G|--------------------------------------|--7-----7-----7--------|
D|--7-----------------7--------7--------|--9--------9-----9-----|
A|--------------------------------------|-----------------------|
E|--------------------------------------|-----------------------|
Related for Broken Chandalier - Days Gone By tab