Song name
# A B C D E F G H I J K L M N O P Q R S T U V W X Y Z

Misc Unsigned Bands - Closure In Moscow - We Want Guarantees tab

You wish has been granted ;)

Intro/Chorus:
E||----------------------|--8b~----------------|
B||----------------------|---------------------|
G||----------------------|---------------------|
D||--8p6--8p6--8p6--8p6--|---------------------|
A||--8p6--8p6--8p6--8p6--|---------------------|
D||--8p6--8p6--8p6--8p6--|---------------------|

This riff is the same for the chorus:
--9--8--6--8----6--4-------|-------------------------|
----------------------(7)--|--6--9--11~--------------|
---------------------------|-------------------------|
---------------------------|-------------------------|
---------------------------|-------------------------|
---------------------------|-------------------------|

--9--8--6--8----6--4-------|----------------11--9--11--9--|
----------------------(7)--|--6--9--11~-------------------|
---------------------------|------------------------------|
---------------------------|------------------------------|
---------------------------|------------------------------|
---------------------------|------------------------------|

--9--8--6--8----6--4-------|--------------------------|
----------------------(7)--|--6--9--11\~--------------|
---------------------------|--------------------------|
---------------------------|--------------------------|
---------------------------|--------------------------|
---------------------------|--------------------------|

--9--8--6--8----6--4-------|-------------------------|
----------------------(7)--|--6--9--11~--------------|
---------------------------|-------------------------|
---------------------------|-------------------------|
---------------------------|-------------------------|
---------------------------|-------------------------|

Verse 1:
--------------------------------|-----------------------------------|
-------------------------13-----|-----------------------------------|
-------------------------12-----|-----------------------------------|
--------------------------------|-----------------------------------|
--------------------------------|--------------------4~--6~---------|
--8------8----6-8-6-8-----------|--8------8----6-8-6-----------3----|

-----------------------------------|----------------------------------|
-----------------------------------|----------------------------------|
-----------------------------------|----------------------------------|
-----------------------------------|--------------4-4-4-4-3-3-3-3-----|
-----------------------------------|--------------4-4-4-4-3-3-3-3-----|
----3------3---3---3---4-----4-----|--6---6---6---4-4-4-4-3-3-3-3-----|

Pre Chorus:
---------------------------------------|-----------------------------------|
---------------------------------------|-----------------------------------|
------------------------13-------------|-----------------------------------|
------------------------12-------------|-----------------------------------|
---------------------------------------|--------------------4~--6~---------|
-8-----8-----6-8-6-8-------------------|--8------8----6-8-6-----------3----|

-----------------------------------|---------------------------------|
-----------------------------------|---------------------------------|
-----------------------------------|---------------------------------|
-----------------------------------|--------------4-4-4-4-4-4-4-4-4--|
-----------------------------------|--------------4-4-4-4-4-4-4-4-4--|
----3------3---3---3---4-----4-----|--6---6---6---4-4-4-4-4-4-4-4-4--|

I have no idea about the part after that sorry :/, but it's similar to the rest of the 
I believe

(Here is the Chorus)

Bridge:
Weird strumming:
|--------------------------------|-----|
|--13--13--13--10-10-13--13--13--|-----|
|--12--12--12---9--9-12--12--12--|-----|
|--------------------------------|-----|
|--------------------------------|-----|
|--------------------------------|-----|

-----------------------|-----------------------|------------13--13--13--13--|
-----------------------|-----------------------|------------15--15--15--15--|
-----------------------|-----------------------|----------------------------|
--8--------8--6--6--6--|--8--6--6--6--8--------|--8--6--6--6----------------|
--8--------8--6--6--6--|--8--6--6--6--8--------|--8--6--6--6----------------|
--8--------8--6--6--6--|--8--6--6--6--8--------|--8--6--6--6----------------|
              .  .  .        .  .  .                 .  .  .

(Here is the chorus again)

Then a riff which contains of the above riff ^^^^^^

Fade in:
--13--13--13--13--13--13--13--13--|
--17--17--17--17--17--17--17--17--|
----------------------------------|
----------------------------------|
----------------------------------|
----------------------------------|

(Here is the chorus again)


And for the rest of the song, it's just:

|---13-12-10-8-10-12-13-12-10-8-10-12-13-12-10-8--||----||
|-------------------------------------------------||----||
|-------------------------------------------------||----||
|-------------------------------------------------||----||
|-------------------------------------------------||----||
|-------------------------------------------------||----||

Tell me what you think, comment and rate please :D
Tap to rate this tab
 
# A B C D E F G H I J K L M N O P Q R S T U V W X Y Z