Song name
# A B C D E F G H I J K L M N O P Q R S T U V W X Y Z

Misc Unsigned Bands - War Fire - Bonde tab

[This is the tab for Bonde]

w=Whammy bar
^=Bend






E  :-----------------------------|---2---2---2---2-|---2---2---2--2--|
B  :------------------------5----|---3---3---3---3-|---3---3---3--3--|
G  :-----------------------------|---2---2---2-2-2-|---2---2---2--2--|
D  :--7-7-7-7-7-7-7-7-7-7-7---7-5|-0-------0-------|-0-------0-------|
A  :5-5-7-----5-7---5-7----------|-----0-----------|-----0----------0|
E  :-----------------------------|-----------------|-----------------|

E  :---2---2---2--2--|---2---2---2--3--|---3---3---3--3-|
B  :---3---3---3--3--|---3---3---3--3--|---3---3---3--3-|
G  :---2---2---2--2--|---2---2---2--2--|---0---0---0--0-|
D  :-0-------0-------|-0-------0-------|----------------|
A  :-----0----------0|-----0----------0|-----2----------|
E  :-----------------|-----------------|-3-------3------|

E  :-0---2---2---2-----2|---2---2-----------2--|-2---2--2-----2--|
B  :-1---3---3---3-----3|---3---3-----------3--|-3---3--3-----3--|
G  :-0-3-2---2---2-----2|---2---2-----------2--|-2---2--2-----2--|
D  :--------------------|-----0---------2------|---0--------0----|
A  :-------0---------0--|-0---------2---0-----0|----------0-----0|
E  :-----------0---0----|---------0---0---0----|-----------------|

E  :-2---2--2----2---|2---2---3----3--|-3---3--3-------2|---2---2--------|
B  :-3---3--3----3---|3---3---3----3--|-3---3--3---1---3|---3---3--------|
G  :-2---2--2----2---|2---2---2----0--|-0---0--0-------2|---2---2--------|
D  :---0-------------|--0-------------|------------2----|---------0------|
A  :----------0----0-|------0--------2|------------3----|-0---------7-8-9|
E  :-----------------|-----------3----|---3------0---0--|-----0----------|

E  :----------------------------|------------------------|
B  :----------------------------|------------------------|
G  :-----------------9--------w5|-------5-------5--------|
D  :-------------8-----7---7^---|-7---7---7---7----------|
A  :-6-7-8-8-7-8---7-----9------|---9-------9--------8-9-|
E  :----------------------------|-----------------10-----|

E  :-------------------------|
B  :-------------------------|
G  :----------9-5------------|
D  :--9-----7-----7----------|
A  :7---7-5---------9--------|
E  :------------------5------|

http://warfirefanclub.com
Tap to rate this tab
 
# A B C D E F G H I J K L M N O P Q R S T U V W X Y Z