Song name
# A B C D E F G H I J K L M N O P Q R S T U V W X Y Z

Misc Unsigned Bands - Tito Nieves - Fabricando Fantasias tab

i guess im the only with this type of music but whatever

E-----------------------------------------------------------------------|
B-----------------------------------------------------------------------|
G-----16--16--16--16---14--16--18---16--16--16--16---14-----------------|
D--------------------------------------------------------17--16--15--14-|
A-----------------------------------------------------------------------|
E-----------------------------------------------------------------------|

E----------------------------------------------------------------------|
B----------------------------------------------------------------------|
G-----16--16--16--16---14--16--18-------17--16--16--17--16--15--14-----|
D-----------------------------------15---------------------------------|
A----------------------------------------------------------------------|
E----------------------------------------------------------------------|

thats pretty much it
Tap to rate this tab
# A B C D E F G H I J K L M N O P Q R S T U V W X Y Z