Song name
# A B C D E F G H I J K L M N O P Q R S T U V W X Y Z

Misc Unsigned Bands - Old School - Think About What You Doing tab

----------------------------------------------------------------------------
            THINK ABOUT WHAT YOUR DOING - OLD SCHOOL
----------------------------------------------------------------------------
This is a song i wrote, then i play some of it for the
singer and he liked it, so i made it a full song instead of the 1 riff
i played him.





Tabbed by Ryan Boone

Intro

e|--------------------------------------|
B|--------------------------------------|
G|--------------------------------------|
D|-6~-----7~-----6~-----7~--------------|
A|-4~-444-4~-444-4~-444-4~--------------|
E|--------------------------------------|

Verse 1

e|-----------------------------------------------------|
B|-----------------------------------------------------|
G|-----------------------------------------------------| play this
D|-7-6-7-6-76-7-6-7-6-76-6-5-6-5-65-6-5-6-5-65---------| 2 times
A|-4-4-4-4-44-4-4-4-4-44-3-3-3-3-33-3-3-3-3-33---------|
E|-----------------------------------------------------|

Chorus

e|----------------------------------|
B|----------------------------------|
G|----------------------------------|
D|-7-7--7-7--9--9-9-9-9-------------|
A|-5-4--5-4--7--6-7-6-7-------------|
E|----------------------------------|


i will tab the solo/outro later
Tap to rate this tab
# A B C D E F G H I J K L M N O P Q R S T U V W X Y Z