Song name
# A B C D E F G H I J K L M N O P Q R S T U V W X Y Z

Misc Unsigned Bands - Tt 34 - Mielofon tab

TT 34  -  Mielofon
Миелофон  (2:45)

this is my first tab so i would be glad to get some improvements since it's not finished.

tuning: Drop D (D A D G B e)

Legend:

// - slide up

intro (wah-wah)
0:00
e ---------------------------------------------------------------------|
B----------------------------------------------------------------------|
G----------------------------------------------------------------------|
D----------------------------------------------------------------------|
A--3-----2-3-4-3-----//8--10--11------2-4-3-4-3-8-10-11--10-11---------|
D----------------------------------------------------------------------|


0:09
e --------------------------------------------------------------------|
B---------------------------------------------------------------------|
G---------------------------------------------------------------------|
D---------------------------------------------------------------------|
A --2-4-3-4-3-8-10-11---11--10--8---7h8-----6-4-3---------------------|
D-------------------------------------------------3-------------------|

0:16
e -----------------------------------------------------|
B------------------------------------------------------|
G------------------------------------------------------|
D------------------------------------------------------|
A--2-4-3-4-3-8-10-11-------2-4-3-4-3-8-10-11--10-11----|
D------------------------------------------------------|

0:23
e-------------------------------------------|
B-------------------------------------------|
G-------------------------------------------|
D-------------------------------------------|
A--2-4-3-4-3-8-10-11---11-10-8p7--7h8-------|
D-------------------------------------------|

0:30
e ----------------------------------------------------------------|
B-----------------------------------------------------------------|
G-----------------------------------------------------------------|
D-----------------------------------------------------------------|
A---8888 8-8-6-8-4-------4444-4-4-3-4-1--------6666-6-6-4-6-3-----|
D-----------------------------------------------------------------|

0:41
e ------------------------------------------------------------------------|
B-------------------------------------------------------------------------|
G-------------------------------------------------------------------------|
D-------------------------------------------------------------------------|
A----3333-3-3-1-3---------------------------------4444-4-4-3-4-3----------|
D------------------------6---5-6-5-8-6-5-6-8------------------------------|

the main parts of the song sound like this, but i don't know the detailed differences (yet)
start (0:52)
e------------------------------------|
B------------------------------------|
G------------------------------------|
D--3h4-3-3--------3-3h4-3-3----------|
A--3h4-3-3--------3-3h4-3-3----------|
D--3h4-3-3--------3-3h4-3-3----------|
Tap to rate this tab
# A B C D E F G H I J K L M N O P Q R S T U V W X Y Z