Song name
# A B C D E F G H I J K L M N O P Q R S T U V W X Y Z

Misc Unsigned Bands - Yazmin Gale - Hiding In Corners tab

"Hiding in corners"

by yazmin gale             http://www.youtube.com/watch?v=FeU4VM41vUc

intro/verse
e-----------x------x------x-----x-|
B----------x------x------x------x-|
G----------7------9-----11-----6--|
D----------0------0-----0-------0-|
A----------x------x-----x-------x-|
E----------7------9----10------5--|

use ur middle finger and the one next to ur little finger for the fist two chords and 
the second two just chnage ur middle  for ur index,to make playing easyer..

pre-chorus

e-----------x------x------|
B----------2------3-------|
G----------2------4-------|
D----------0------0-------|
A----------x------x-------|
E----------2------3-------|

chorus

e-----------x------x------x------|
B----------x------x------0-------|
G----------7------6------2-------|
D----------0------0------0-------|
A----------x------x------x-------|
E----------7------5------3-------|

use the same fingers as u do for u use them in the verse and for the lst one...well just 
at the video and ull get it lol

thts all u need to know...just work out the rythem ur self cus it quite alot of effort 
do tht to lol and just lietn to it for the structure of the song :)

if u wana know anything else just ask
Tap to rate this tab
# A B C D E F G H I J K L M N O P Q R S T U V W X Y Z