Song name
# A B C D E F G H I J K L M N O P Q R S T U V W X Y Z

Misc Unsigned Bands - Cillit Bang - The Last Day Of School tab

-------------------------------------------------------------------------------
                      THE LAST DAY OF SCHOOL- Cillit Bang
-------------------------------------------------------------------------------
Tabbed by: Beatlefan24
Email: Melee696@aol.com

Note: This song is pretty much all power chords, so bear with me here.

Tuning: EADGBe (Regular)

Intro:

e|---------------------------------------------------------------------------|
B|---------------------------------------------------------------------------|
G|-7-7-7-7-5-5-5-5-4-5-7-------7-7-7-7-5-5-5-5-4-5-7-------------------------|
D|-7-7-7-7-5-5-5-5-4-5-7--7-7--7-7-7-7-5-5-5-5-4-5-7--7-7--------------------|
A|-5-5-5-5-3-3-3-3-2-3-5--7-7--5-5-5-5-3-3-3-3-2-3-5--7-7--------------------|
E|------------------------5-5-------------------------5-5--------------------|

Verse 1:(Play what I tabbed here 4x, and whammy occasionally.)

e|---------------------------------------------------------------------------|
B|---------------------------------------------------------------------------|
G|-7-7-7-7-7-7-7-7-5-5-5-5-5-5-5-5----------------------------5--------------|
D|-7-7-7-7-7-7-7-7-5-5-5-5-5-5-5-5-5-5-5-5-5-5-5-5-5-5-5-5-5--5--------------|
A|-5-5-5-5-5-5-5-5-3-3-3-3-3-3-3-3-5-5-5-5-5-5-5-5-5-5-5-5-5--3--------------|
E|---------------------------------3-3-3-3-3-3-3-3-3-3-3-3-3-----------------|

Chorus:

e|---------------------------------------------------------------------------|
B|---------------------------------------------------------------------------|
G|-9----7-----------------------9----7---------------------------------------|
D|-9----7-----------------------9----7---------------------------------------|
A|-7----5---------3--3-3h5------7----5---------3--3-3h5----------------------|
E|-----------3--3-------------------------3--3-------------------------------|

Riff:

e|---------------------------------------------------------------------------|
B|---------------------------------------------------------------------------|
G|-----------------------------------------------------------14-14-14-14-16--|
D|----------------14-12--12---------------------------14-12------------------|
A|----------12h14----------12-10-12-------------12h14------------------------|
E|-12-12h14----------------------------12-12h14------------------------------|

e|---------------------------------------------------------------------------|
B|---------------------------------------------------------------------------|
G|-14-16b--14-----7-7-7-7-5-5-5-5-4-5-7-------7-7-7-7-5-5-5-5-4-5-7----------|
D|----------------7-7-7-7-5-5-5-5-4-5-7--7-7--7-7-7-7-5-5-5-5-4-5-7--7-7-----|
A|----------------5-5-5-5-3-3-3-3-2-3-5--7-7--5-5-5-5-3-3-3-3-2-3-5--7-7-----|
E|---------------------------------------5-5-------------------------5-5-----|

Verse 2:(Like before, play this 4x)

e|---------------------------------------------------------------------------|
B|---------------------------------------------------------------------------|
G|-7-7-7-7-7-7-7-7-5-5-5-5-5-5-5-5----------------------------5--------------|
D|-7-7-7-7-7-7-7-7-5-5-5-5-5-5-5-5-5-5-5-5-5-5-5-5-5-5-5-5-5--5--------------|
A|-5-5-5-5-5-5-5-5-3-3-3-3-3-3-3-3-5-5-5-5-5-5-5-5-5-5-5-5-5--3--------------|
E|---------------------------------3-3-3-3-3-3-3-3-3-3-3-3-3-----------------|

Chorus:

e|---------------------------------------------------------------------------|
B|---------------------------------------------------------------------------|
G|-9----7-----------------------9----7---------------------------------------|
D|-9----7-----------------------9----7---------------------------------------|
A|-7----5---------3--3-3h5------7----5---------3--3-3h5----------------------|
E|-----------3--3-------------------------3--3-------------------------------|

Solo A: (Play this 2x, and FAST! This is all just finger-tapping, so it can get a
 little confusing).

e|---------------------------------------------------------------------------|
B|---------------------------------------------------------------------------|
G|---------------------------------------------------------------------------|
D|-12p0h7h12p0h7h12p0h7h12p0h7h12p0h8h12p0h8h12p0h8h12p0h8h12p0h9h12p0h9h12p0|
A|---------------------------------------------------------------------------|
E|---------------------------------------------------------------------------|

e|---------------------------------------------------------------------------|
B|---------------------------------------------------------------------------|
G|---------------------------------------------------------------------------|
D|-h8h12p0h8h12p0h7h12p0h7h12p0h7h12p0h7-------------------------------------|
A|---------------------------------------------------------------------------|
E|---------------------------------------------------------------------------|

Solo B:

e|----------------------------------------------------------------------------|
B|-----------------------------------------------------6-8-8-6-8---11-8-8-6-8-|
G|-0h3h5--0-0h3h5--0h3h5--0-0h3h5--5-5-5-5h7--5-5-5-5-------------------------|
D|----------------------------------------------------------------------------|
A|----------------------------------------------------------------------------|
E|----------------------------------------------------------------------------|

e|---------------------------------------------------------------------------|
B|-8-8-8---------------------------------------------------------------------|
G|-------10-12-12-12-12------------------------------------------------------|
D|---------------------------------------------------------------------------|
A|---------------------------------------------------------------------------|
E|---------------------------------------------------------------------------|

Solo C: ( This is basically a pentatonic walk up.You gotta strum REALLY fast here!)

e|---------------------------------------------------------------------------|
B|---------------------------------------------------------------------------|
G|-12-12-12-12-12-12-12-12-15-15-15-15-15-15-15-15-17-17-17-17-17-17-17-17---|
D|---------------------------------------------------------------------------|
A|---------------------------------------------------------------------------|
E|---------------------------------------------------------------------------|

e|---------------------------------------------------------------------------|
B|-------------------------------------------------20-20-20-20-20-20-20-20---|
G|-19-19-19-19-19-19-19-19-22-22-22-22-22-22-22-22---------------------------|
D|---------------------------------------------------------------------------|
A|---------------------------------------------------------------------------|
E|---------------------------------------------------------------------------|

e|-18-18-18-18-18-18-18-18-20-20-20-20-20-20-20-20-22-22-22-22-22-22-22-22-22-|
B|----------------------------------------------------------------------------|
G|----------------------------------------------------------------------------|
D|----------------------------------------------------------------------------|
A|----------------------------------------------------------------------------|
E|----------------------------------------------------------------------------|

e|-22-22-22-22-22-22-22-22---22/0--------------------------------------------|
B|---------------------------------------------------------------------------|
G|---------------------------------------------------------------------------|
D|---------------------------------------------------------------------------|
A|---------------------------------------------------------------------------|
E|---------------------------------------------------------------------------|

Outro: IMPORTANT- Have rhythm guitar ring out 2nd to last D power chord.
                                                   |
e|-------------------------------------------------|------8h10----8h10-10/0---|
B|------------------------------------------------\|/-8h10----8h10------------|
G|-7----5----4--5--7-------7----5----4--5--7-------7------------------------7-|
D|-7----5----4--5--7--7-7--7----5----4--5--7--7-7--7------------------------7-|
A|-5----3----2--3--5--7-7--5----3----2--3--5--7-7--5------------------------5-|
E|--------------------5-5---------------------5-5-----------------------------|
Tap to rate this tab
# A B C D E F G H I J K L M N O P Q R S T U V W X Y Z