Song name
# A B C D E F G H I J K L M N O P Q R S T U V W X Y Z

Misc Unsigned Bands - Laser Inc - Det Var En Gng En Liten Fgel tab

Det var en gng...

e---------------------------------------------------------------------|
B---------------------------------------------------------------------|
G---------------------------------------------------------------------|
D---------------5-5-5-5-4---------------------------------------------|
A--0h2-2-2-2p0------------5--55-5-7-4--44-4-5-0-2-2-2-2p0-----------5-|
E---------------------------------------------------------3-3-3-3-2---|

e-------------------------------------------------------------------------|
B-------------------------------------------------------------------------|
G-------------------------------------------------------------------------|
D-------------------------------5-5-5-5-4---------------------------------|
A--55-5-7-4--44-4-5-0-2-2-2-2p0-----------5--55-5-7-4--44-4-5-0-2-2-2-2p0-|
E-------------------------------------------------------------------------|

Swe: Gr det tills den melodin slutar
Eng: Do that until that melodi ends

No singing here

e---------------------------------------------------------------|
B---------------------------------------------------------------|
G---------------------------------------------------------------|
D----------------------------------4------4---------------------|
A--22-4-2--2-54-2----2------2-4-55---5--5---5-7-4-7-44-4-7-0-2--|
E-----------------33---3--3-------------------------------------|

e-------------------------------------------------------------------|
B-------------------------------------------------------------------|
G-------------------------------------------------------------------|
D-------------------------54-------7-4--4-7-5-4---------4-----------|
A--22-4-2--2-54-2----2-------7-5-5--------------7-00--7---7-5-4-0-2-|
E-----------------33---3--------------------------------------------|

Det var en gng...

e---------------------------------------------------------------------|
B---------------------------------------------------------------------|
G---------------------------------------------------------------------|
D---------------5-5-5-5-4---------------------------------------------|
A--0h2-2-2-2p0------------5--55-5-7-4--44-4-5-0-2-2-2-2p0-----------5-|
E---------------------------------------------------------3-3-3-3-2---|

e-------------------------------------------------------------------------|
B-------------------------------------------------------------------------|
G-------------------------------------------------------------------------|
D-------------------------------5-5-5-5-4---------------------------------|
A--55-5-7-4--44-4-5-0-2-2-2-2p0-----------5--55-5-7-4--44-4-5-0-2-2-2-2p0-|
E-------------------------------------------------------------------------|

Swe: Upprepa allt det har om och om igen
Eng: Repet all over and over again
Tap to rate this tab
# A B C D E F G H I J K L M N O P Q R S T U V W X Y Z