Song name
# A B C D E F G H I J K L M N O P Q R S T U V W X Y Z

Misc Unsigned Bands - Switchblade Romance - Usps Got Blood On My Letter tab

drop d
tab is a little sloppy, but whatever, its definately 100% correct




intro and verse 1

e|--------------------------------------------------------------------|
B|--------------------------------------------------------------------|
G|--------------------------------------------------------------------|
D|0000 6h5 0000 8h7 0000 6h5 8h7 10h9 / 0 000 0 6 00 5  0 000 0 8 00 7|
A|0000 6h5 0000 8h7 0000 6h5 8h7 10h9 / 0 000 0 6 00 5  0 000 0 8 00 7|
D|0000 6h5 0000 8h7 0000 6h5 8h7 10h9 / 0 000 0 6 00 5  0 000 0 8 00 7|
  ....     ....     ....   (x8)         . ... . . .. .  . ... .   ..

e|--------------------------------------------------------------------|
B|--------------------------------------------------------------------|
G|--------------------------------------------------------------------|
D|0 000 0 10 00 9-----------------------------------------------------|
A|0 000 0 10 00 9-----------------------------------------------------|
D|0 000 0 10 00 9-----------------------------------------------------|
  . ... .    .. (x4)

chorus

e|----(figure out strumming pattern)----------------------------------|
B|--------------------------------------------------------------------|
G|------7-----9--11---------------------------------------------------|
D|5  3--5--7--7--9-----5---3---7---3  3-33 3 33 2---------------------|
A|5  3- 5--7--7--9-----5---3---7---3--3-33 3 33 2---------------------|
D|5  3-----7-----------5---3---7---3--3 33 3 33 2---------------------|
                                        ..   ..

verse 2

e|--------------------------------------------------------------------|
B|------------------- (last time do this)-------------"---------------|
G|-----"-------"-"------------------------------"-"---7---------------|
D|777--9- 555--7-5-"----------------------555---7 5-------------------|
A|777---- 555------7----------------------555-------------------------|
D|777---- 555-----------------------------555-------------------------|


(chorus)

breakdown


e|-------------------------------------------------------------------------|
B(pick scrape)-------------------------------------------------------------|
G|-------------------------------------------------------------------------|
D|////////-----------------------------------------------------------------|
A|////////--0000 00 00-(x7?)-----------------------------------------------|
D|////////  0000 00 00-----------------------------------------------------|
            .... .. ..


e|------------------------------------------------------------------------|
B|----------------------(bend the last 12 sometimes, its easy to hear-----|
G|------------------------------------------------------------------------|
D|-----------5 000 7 000 8 000 7 000-----------10 000 12 000 13 000 12 000|
A|0000 00 00 ------------------------0000 00-00---------------------------|
D|0000 00 00 ------------------------0000 00 00---------------------------|
  .... .. ..                         .... .. ..
    
outro

e|------5---------------------------------------------------------------|
B|6 8-6-6--6-6-----6 6-6~-----------------------------------------------|
G|7-7-7-7--5-5--   5 5-5~-----------------------------------------------|
D|5-5-5-5  7-8-8p7 7-5 5~-----------------------------------------------|
A|----------------------------------------------------------------------|
D|-(figure out pattern)-------------------------------------------------|
Tap to rate this tab
# A B C D E F G H I J K L M N O P Q R S T U V W X Y Z